Sound will begin in 5 seconds

Theme From Ice Castles (Through the Eyes of Love)

01234567891011121314151617181920212223
E
B
G
D
A
E
B
0 1 2 3 4 5 6 7 8 9 10 11 12 13 14 15 16 17 18 19 20 21 22 23
Song Science #1: How Pros Use 6 Chords to Write Hit Songs
(/) Slide Up  (\) Slide Down  (h) Hammer On  (p) Pull Off  (b) Bend (r) Release (v) Vibrato

Stave 1:

E|--13------13------13------13------|--12------12------12------12--13--15--|-----------------------
B|--13----------13--13--------------|--13----------13--13------------------|-----------------------
G|--15----------15--15--------------|--15----------15--15------------------|-----------------------
D|------15------15------15------15--|------14------14------14--------------|-----------------------
A|----------------------------------|--------------------------------------|-----------------------
E|----------------------------------|--------------------------------------|-----------------------

Stave 2:

E|--13------13------13------13------|--8--------8--11------15------|-----
B|--13----------13--13--------------|-----8--------------------11--|-----
G|--15----------15--15--------------|--------8---------12----------|-----
D|------15------15------15------15--|--0---------------------------|-----
A|----------------------------------|--------------0---------------|-----
E|----------------------------------|------------------------------|-----

Stave 3:

E|--13------13------13------13------|--12------12------12------12--13--15--|--
B|--13----------13--13--------------|--13----------13--13------------------|--
G|--15----------15--15--------------|--15----------15--15------------------|--
D|------15------15------15------15--|------14------14------14--------------|--
A|----------------------------------|--------------------------------------|--
E|----------------------------------|--------------------------------------|--

Stave 4:

E|--13--10--|--------------------------|--
B|--13--11--|--------------------3--4--|--
G|--14--12--|--5--------2--3--5--------|--
D|--12--12--|--0--3--5-----3-----------|--
A|------10--|--0-----------------------|--
E|----------|--------------------------|--

Stave 5:

E|--0-----------
B|--3--------0--
G|--3-----3-----
D|--3--3--------
A|--0-----------
E|--------------

http://www.guitartabcreator.com
Guitar Tab Creator is intended to store guitar tab created through the tool. It currently does not support in-line text editing. Any text you place in here will be lost. If you need to comment on your tab, please use the "Tab Notes" section located below.