Sound will begin in 5 seconds

Are You Washed In The Blood (key A)

01234567891011121314151617181920212223
E
B
G
D
A
E
B
0 1 2 3 4 5 6 7 8 9 10 11 12 13 14 15 16 17 18 19 20 21 22 23
Song Science #1: How Pros Use 6 Chords to Write Hit Songs
(/) Slide Up  (\) Slide Down  (h) Hammer On  (p) Pull Off  (b) Bend (r) Release (v) Vibrato

(W|WW) Whole (H|HH) Half (Q|QQ) Quarter (E|EE) 8th (S|SS) 16th (T|TT) 32nd (X|XX) 64th

Stave 1:
t: W W Q Q H H Q Q Q Q H H H Q Q H H H Q Q W undefined undefined Q Q
E|------------|---------|--------------|--------|-----------|--------|-----------|-----|------------
B|------------|---------|--------------|--------|-----------|--2--2--|--2--------|-----|------2-----
G|------------|--/2--2--|--2-----------|--2--2--|--2--2--4--|--------|-----4--2--|--4--|---------4--
D|------2--4--|---------|-----4--2--4--|--------|-----------|--------|-----------|-----|------------
A|------------|---------|--------------|--------|-----------|--------|-----------|-----|------------
E|------------|---------|--------------|--------|-----------|--------|-----------|-----|------------

Stave 2:
t: H H Q Q Q Q H H H Q Q H H H Q Q W
E|--------|--------------|--------|-----------|--------|-----------|-----|--|--
B|--------|-----2--------|--------|-----------|--------|-----------|-----|--|--
G|--2--2--|--2-----4--2--|-----1--|--2--1-----|-----2--|--1-----1--|--2--|--|--
D|--------|--------------|--4-----|--------4--|--2-----|-----4-----|-----|--|--
A|--------|--------------|--------|-----------|--------|-----------|-----|--|--
E|--------|--------------|--------|-----------|--------|-----------|-----|--|--

http://www.guitartabcreator.com
Guitar Tab Creator is intended to store guitar tab created through the tool. It currently does not support in-line text editing. Any text you place in here will be lost. If you need to comment on your tab, please use the "Tab Notes" section located below.