Sound will begin in 5 seconds

Somewhere Else

01234567891011121314151617181920212223
E
B
G
D
A
E
B
0 1 2 3 4 5 6 7 8 9 10 11 12 13 14 15 16 17 18 19 20 21 22 23
Song Science #1: How Pros Use 6 Chords to Write Hit Songs
(/) Slide Up  (\) Slide Down  (h) Hammer On  (p) Pull Off  (b) Bend (r) Release (v) Vibrato

Stave 1:

E|----------------------
B|----------------------
G|--5--4--4p2--5--4--4--
D|--3--2--0----3--2--5--
A|--5--0-------5--3-----
E|--------3----------3--

Stave 2:

E|--0--0--0--0--0--
B|--1--3--1--3--2--
G|--2--0--2--0--0--
D|--3--2--3--2--2--
A|--3--2--3--0--0--
E|-----0-----------

Stave 3:

E|--8--7--7--
B|--6--8--8--
G|--7--9--7--
D|--7--7--9--
A|-----------
E|-----------

http://www.guitartabcreator.com
Guitar Tab Creator is intended to store guitar tab created through the tool. It currently does not support in-line text editing. Any text you place in here will be lost. If you need to comment on your tab, please use the "Tab Notes" section located below.