Sound will begin in 5 seconds

John Mayer - Ain't No Sunshine

01234567891011121314151617181920212223
E
B
G
D
A
E
B
0 1 2 3 4 5 6 7 8 9 10 11 12 13 14 15 16 17 18 19 20 21 22 23
Song Science #1: How Pros Use 6 Chords to Write Hit Songs
(/) Slide Up  (\) Slide Down  (h) Hammer On  (p) Pull Off  (b) Bend (r) Release (v) Vibrato

Stave 1:

E|---3------------------------|---3--------------------------|---3------------------------|-
B|---3-6-3--------------------|---3-6-3----------------------|---3-6-3--------------------|-
G|--------------5-----5-------|--------------5-5-5-5-5-------|--------------5-----5-------|-
D|--------------5h7---7p5-----|--------------5-7-5-7-7p5-----|--------------5h7---7p5-----|-
A|----------5-8-----5-----8-5-|----------5-8-------------8-5-|----------5-8-----5-----8-5-|-
E|-3--------5-----------------|-3--------5-------------------|-3--------5-----------------|-

Stave 2:

E|---3-------------------------|-----------------------3----------------------3-6-
B|---3-6-3---------------------|-----------------------3--5---6---6---6---4/5-----
G|---------------3-----5-----3-|-----3-----3------------------------------3-4-----
D|---3---------3-----5-----3---|---3-----3-----3h5--------3---3---3---3---2-3-----
A|-----------5-----5-----5-----|-5-----5-----5--------------------------5---------
E|-3---------------------------|---------------------3----------------------------

Stave 3:

E|---------------------------------
B|-5-6-5-------6-------------------
G|-------3-5/7---7\5p3-5---3b5-----
D|-----------------------5-----3-5-
A|---------------------------------
E|-3-------------------------------

Stave 4:

E|-10----|-8----|-
B|-10-13-|-8-11-|-
G|-10-12-|-8-11-|-
D|-10-12-|-8-11-|-
A|-10-12-|-8-11-|-
E|-10----|-8----|-

Stave 5:

E|---------------------------6v---7b9----|--------------------------|-
B|-0/8v-6-3----------------8----------8v-|-8-11-11b13-13-13---11b13-|-
G|-----------------------7---------------|--------------------------|-
D|----------5b7-5-3v---------------------|--------------------------|-
A|-------------------5-------------------|--------------------------|-
E|---------------------------------------|--------------------------|-

Stave 6:

E|-------8-9-10-------8-----------------|-10b13-11b13-13-10b12r10-10-8--p8br
B|-11b13--------11b13---11-8-11b13-8-8v-|-----------------------------------
G|--------------------------------------|-----------------------------------
D|--------------------------------------|-----------------------------------
A|--------------------------------------|-----------------------------------
E|--------------------------------------|-----------------------------------

Stave 7:

E|------8-----------------|-
B|-11-8-11b13-11-11b13-8v-|-
G|------------------------|-
D|------------------------|-
A|------------------------|-
E|------------------------|-

Stave 8:

E|----------------------------------------------------------------
B|-15-15-18-18---15-18-18---15-18-18--15-18-18-18b20-18-15--------
G|---------------------------------------------------------17-15v-
D|----------------------------------------------------------------
A|----------------------------------------------------------------
E|----------------------------------------------------------------

Stave 9:

E|-----------------------|---------------------|----------------------------------|-
B|-15-15---15-15---15-15-|-15-18-18---15-18-18-|-15-18b20-18-15-------------------|-
G|-x-------x-------x-----|-x----------x--------|----------------17b19-17-15v------|-
D|-17------17------17----|-17---------17-------|-----------------------------17\0-|-
A|-----------------------|---------------------|----------------------------------|-
E|-----------------------|---------------------|----------------------------------|-

Stave 10:

E|-------------------15-17-15h17v-|-------------------------------------|-----------------------------
B|----------15-18b20--------------|-------------------------------------|-----------------------------
G|----15-17-----------------------|------------15-17b18b19b18b19--------|-----------------------------
D|-17-----------------------------|------15-17-------------------17-17v-|-----------------------------
A|--------------------------------|-0/17--------------------------------|-----------------------------
E|--------------------------------|-------------------------------------|-----------------------------

Stave 11:

E|---------------------------------------
B|---------------------------------------
G|-------15b17b17r-15--------------------
D|-15-17--------------17v-17v-17v-17v-\--
A|---------------------------------------
E|---------------------------------------

Stave 12:

E|-9b11-9b11-9b11v-9b10-9-7---------|-8b10b10-7b9b9-6-|-8b10b10-7b9b9-6-|-8b10b--
B|-9----9----9-----9----9---8v---8v-|-----------------|-----------------|--------
G|----------------------------------|-----------------|-----------------|--------
D|----------------------------------|-----------------|-----------------|--------
A|----------------------------------|-----------------|-----------------|--------
E|----------------------------------|-----------------|-----------------|--------

Stave 13:

E|-8b10b10b10-8-6----|-6v-6-7b9-7b9-8b10-8b10-9b11-9b11v-8-6----|-
B|----------------8v-|------7---7---8----8----9----9---------8v-|-
G|-------------------|------------------------------------------|-
D|-------------------|------------------------------------------|-
A|-------------------|------------------------------------------|-
E|-------------------|------------------------------------------|-

Stave 14:

E|-------3-------------|-----------------|---------------|-------------------|---
B|-----3---6-3---------|-6-3---------5-3-|-----3-5-3-----|-------------------|---
G|-5b7---------6-5-3---|-----6-5-3-------|-5-3-3-5-3-6-5-|-3-----------------|---
D|-------------------5-|-----------5-----|-----5---------|---5-3---5-3-------|---
A|---------------------|-----------------|---------------|-------5-----5-4-3-|---
E|---------------------|-----------------|---------------|-------------------|---

Stave 15:

E|---------------------|-----
B|---x-6-3-------------|-----
G|---x-----6-5-3-------|-----
D|---------------5-3-5-|-3-5-
A|---------------------|-----
E|-6-3-----------------|-----

http://www.guitartabcreator.com
Guitar Tab Creator is intended to store guitar tab created through the tool. It currently does not support in-line text editing. Any text you place in here will be lost. If you need to comment on your tab, please use the "Tab Notes" section located below.