Sound will begin in 5 seconds

Adventure Time

01234567891011121314151617181920212223
E
B
G
D
A
E
B
0 1 2 3 4 5 6 7 8 9 10 11 12 13 14 15 16 17 18 19 20 21 22 23
Song Science #1: How Pros Use 6 Chords to Write Hit Songs
(/) Slide Up  (\) Slide Down  (h) Hammer On  (p) Pull Off  (b) Bend (r) Release (v) Vibrato

Stave 1:

E|-3-3-3-5-3-3-3-5-3-3-3-5---------------------------------------------------------
B|-------------------------3-3-3-5-3-3-3-5-3-3-3-5-3-3-3-5-------------------------
G|---------------------------------------------------------1-1-1-2-1-1-1-2-1-1-1-2-
D|---------------------------------------------------------------------------------
A|---------------------------------------------------------------------------------
E|---------------------------------------------------------------------------------

Stave 2:

E|-5-7-----------------------------------------7-5-------------------------------------------------
B|-----5-7---------------------------------7-5-----10-10-10-12-10-10-10-12-------------------------
G|---------5-7-------------------------7-5---------------------------------------------------------
D|-------------5-7-----------------7-5-------------------------------------------------------------
A|-----------------5-7---------7-5-----------------------------------------------------------------
E|---------------------5-7-7-5---------------------------------------------------------------------

Stave 3:

E|-------------------------------------3-1-1-3-------------5-5-5-5-7-5-5-5-5-7-5-5-5-5-7-
B|-10-10-10-12-10-10-10-12---------3-1---------1-3---------------------------------------
G|-----------------------------3-1-----------------1-3-----------------------------------
D|-------------------------1-3-------------------------1-3-------------------------------
A|---------------------------------------------------------------------------------------
E|---------------------------------------------------------------------------------------

Stave 4:

E|-3-3-3-5-3-3-3-5-3-3-3-5---------------------------------8-10--------------------------
B|-------------------------3-3-3-5-3-3-3-5-3-3-3-5-3-3-3-5------8-10---------------------
G|-------------------------------------------------------------------8-10----------------
D|------------------------------------------------------------------------8-10-----------
A|-----------------------------------------------------------------------------8-10------
E|----------------------------------------------------------------------------------8-10-

Stave 5:

E|--------------------------------------------------------------
B|-2-2-2-2-5-2-2-2-2-5-2-2-2-2-5--------------------------------
G|--------------------------------------------------------------
D|--------------------------------------------------------------
A|--------------------------------------------------------------
E|-------------------------------1-1-3-3-3-3-3-3-3-3-3-3-6-8-10-

http://www.guitartabcreator.com
Guitar Tab Creator is intended to store guitar tab created through the tool. It currently does not support in-line text editing. Any text you place in here will be lost. If you need to comment on your tab, please use the "Tab Notes" section located below.