Sound will begin in 5 seconds

Arnold Swayne

01234567891011121314151617181920212223
E
B
G
D
A
E
B
0 1 2 3 4 5 6 7 8 9 10 11 12 13 14 15 16 17 18 19 20 21 22 23
Song Science #1: How Pros Use 6 Chords to Write Hit Songs
(/) Slide Up  (\) Slide Down  (h) Hammer On  (p) Pull Off  (b) Bend (r) Release (v) Vibrato

Stave 1:

E|--------0-----------0-----------0-----1-----0-----
B|--3-----------3-----------3-----------------------
G|-----2-----2-----2-----2-----2-----2-----2-----2--
D|--------------------------------------------------
A|--------------------------------------------------
E|--------------------------------------------------

Stave 2:

E|----------3-----------3-----------3-----3-----3-----
B|----3-----------3-----------3-----------------------
G|-------0-----0-----0-----0-----0-----0-----0-----0--
D|----------------------------------------------------
A|----------------------------------------------------
E|----------------------------------------------------

Stave 3:

E|--------0-----------0-----------0--------------------------------
B|--3-----------3-----------3-----------3----------13--13--13--13--
G|-----2-----2-----2-----2-----2-----2-----------------------------
D|-----------------------------------------------------------------
A|-----------------------------------------------------------------
E|-----------------------------------------------------------------

Stave 4:

E|--------------------------------------
B|--12----------------------------------
G|------12------12--12--12--11--12--12--
D|----------14--------------------------
A|--------------------------------------
E|--------------------------------------

Stave 5:

E|--------------------------------------------------------------------------------------
B|--13--12------------------------------------------12--12--12--13--13--13--15--15--15--
G|----------14--12------------12--14----14--14--14--------------------------------------
D|------------------14----14------------------------------------------------------------
A|--------------------------------------------------------------------------------------
E|--------------------------------------------------------------------------------------

Stave 6:

E|------------------------------------------
B|--17--17--17--17--17--17--17--17--17--17--
G|------------------------------------------
D|------------------------------------------
A|------------------------------------------
E|------------------------------------------

Stave 7:

E|------------------------------------------------------------
B|--15--18--17--15--13--12--10--9--10--12--13--12--10--9--10--
G|------------------------------------------------------------
D|------------------------------------------------------------
A|------------------------------------------------------------
E|------------------------------------------------------------

Stave 8:

E|-----------------------------------------------------------------
B|-----------------------------------------------------------------
G|--2b2--2p0--------------0--2--2--2b2--2--4--5--7--9--11--12--14--
D|------------2--2--0--2-------------------------------------------
A|-----------------------------------------------------------------
E|-----------------------------------------------------------------

http://www.guitartabcreator.com
Guitar Tab Creator is intended to store guitar tab created through the tool. It currently does not support in-line text editing. Any text you place in here will be lost. If you need to comment on your tab, please use the "Tab Notes" section located below.