Sound will begin in 5 seconds

calm

Chords
01234567891011121314151617181920212223
E
B
G
D
A
E
B
0 1 2 3 4 5 6 7 8 9 10 11 12 13 14 15 16 17 18 19 20 21 22 23
Song Science #1: How Pros Use 6 Chords to Write Hit Songs
(/) Slide Up  (\) Slide Down  (h) Hammer On  (p) Pull Off  (b) Bend (r) Release (v) Vibrato

Capo Fret 5

Stave 1:

C|-----------------------------------------------------------
G|--------5--------------------------------------------------
G|--------5--10p8--10p8--10p8--------------------------------
C|--------5--------------------10--10b11b10--10p8h10--8------
G|--------5----------------------------------------------10--
C|--8--7--5--------------------------------------------------

Stave 2:

C|-------------------------------------------------
G|-------------------------------------------------
G|-------------------------------------------------
C|----------------------5h7--7--5h7--7--5h7p5------
G|--8--7--5--5--5h6--6-------------------------10--
C|-------------------------------------------------

http://www.guitartabcreator.com
Guitar Tab Creator is intended to store guitar tab created through the tool. It currently does not support in-line text editing. Any text you place in here will be lost. If you need to comment on your tab, please use the "Tab Notes" section located below.