Sound will begin in 5 seconds

The Garden Grove

01234567891011121314151617181920212223
E
B
G
D
A
E
B
0 1 2 3 4 5 6 7 8 9 10 11 12 13 14 15 16 17 18 19 20 21 22 23
(/) Slide Up  (\) Slide Down  (h) Hammer On  (p) Pull Off  (b) Bend (r) Release (v) Vibrato

Guitar 1

E|--------------------------------------------------------------------
B|----------------------------------------------------10--------------
G|----------------------------------------12--10--12------12--10------
D|------------------------7--8--8--10/12--------------------------12--
A|-------------8--10--10----------------------------------------------
E|--10--8--10---------------------------------------------------------

Guitar 1

E|------------------------------------------------------------------
B|------------------------------------------------------------------
G|------------------------------------------------------------------
D|--12--10------10--12--10------10----------------------------7--8--
A|----------13--------------13------10-------------8--10--10--------
E|--------------------------------------10--8--10-------------------

Guitar 1

E|-----------------
B|-----------------
G|-----------------
D|--7--8--7--------
A|--------------8--
E|-----------8-----

Stave 4:

E|--
B|--
G|--
D|--
A|--
E|--

http://www.guitartabcreator.com
Guitar Tab Creator is intended to store guitar tab created through the tool. It currently does not support in-line text editing. Any text you place in here will be lost. If you need to comment on your tab, please use the "Tab Notes" section located below.