Sound will begin in 5 seconds

that party down the street

01234567891011121314151617181920212223
E
B
G
D
A
E
B
0 1 2 3 4 5 6 7 8 9 10 11 12 13 14 15 16 17 18 19 20 21 22 23
Song Science #1: How Pros Use 6 Chords to Write Hit Songs
(/) Slide Up  (\) Slide Down  (h) Hammer On  (p) Pull Off  (b) Bend (r) Release (v) Vibrato

(W|WW) Whole (H|HH) Half (Q|QQ) Quarter (E|EE) 8th (S|SS) 16th (T|TT) 32nd (X|XX) 64th

Stave 1:
t: W W W W
E|--------------|--
B|--------------|--
G|--------------|--
D|--------------|--
A|--------------|--
E|--8--8--5--3--|--

Stave 2:
t: W W WW WW W H HH WW W W H HH W W W H HH W W H H
E|------------------|-------------------|------------------|------------------------|--
B|------------------|-------------------|------------------|------------------------|--
G|------------------|-------------------|------------------|------------------------|--
D|------------------|-------------------|------------------|------------------------|--
A|----------12--10--|------------10-----|--------10--------|--------10-----------7--|--
E|----8--8----------|--8--8--12------2--|--8--7------5--7--|--8--7------5--3--3-----|--

Stave 3:
t: W W WW WW W W WW WW WW W W WW W H HH W W W H HH W E E E E E E E E
E|----------------|------------------------------|------------------|---------------------------------------
B|----------------|------------------------------|------------------|---------------------------------------
G|----------------|--------------------9---------|------------------|---------------------------------------
D|----------------|-----7-----------------9------|------------------|---------------------------------------
A|--------12--10--|--------10------12--------10--|--------10--------|--------10-----------------------------
E|--8--8----------|--8---------12----------------|--8--7------5--7--|--8--7------5--3--3--3--3--3--3--3--3--

Stave 4:
t: EE EE EE EE EE EE EE EE E E E E E E E E E E E E E E E E E E E E E E E E EE EE EE EE EE EE EE EE
E|--------------------------------------------------------------------------------------------------------------------------------------------|--
B|--------------------------------------------------------------------------------------------------------------------------------------------|--
G|--------------------------------------------------------------------------------------------------------------------------------------------|--
D|--------------------------------------------------------------------------------------------------------------------------------------------|--
A|--------------------------------------------------------------------------------------------------------------------------------------------|--
E|----10--10--10--10--10--10--10--10--0--0--0--0--0--0--0--0--3--3--3--3--3--3--3--3--8--8--8--8--8--8--8--8--12--12--12--12--12--10--10--10--|--

Stave 5:
t: E E E E E E E E E E E E E E E E E E E E E E E E E E E E E E E E EE EE EE EE EE EE EE EE
E|------------------------------------------------------------------------------------------------------------------------------------|--
B|------------------------------------------------------------------------------------------------------------------------------------|--
G|------------------------------------------------------------------------------------------------------------------------------------|--
D|------------------------------------------------------------------------------------------------------------------------------------|--
A|------------------------------------------------------------------------------------------------------------------------------------|--
E|----8--8--8--8--8--8--8--8--0--0--0--0--0--0--0--0--3--3--3--3--3--3--3--3--8--8--8--8--8--8--8--8--12--12--12--12--12--12--12--12--|--

Stave 6:
t: W W W W W W W W W W W W W W W W W W W W W W W W W W W W W W W W W W W W W W W W W W W W W W W
E|---------------------------------------------------------------------------------------------------------------------------------------------
B|---------------------------------------------------------------------------------------------------------------------------------------------
G|---------------------------------------------------------------------------------------------------------------------------------------------
D|---------------------------------------------------------------------------------------------------------------------------------------------
A|---------------------------------------------------------------------------------------------------------------------------------------------
E|--8--8--8--8--8--8--8--8--0--0--0--0--0--0--0--0--3--3--3--3--3--0--3/8--8--8--8--8--8--8--8--0--0--0--0--0--0--0--0/8--8--8--8--8--8--8--8--

Stave 7:
t: W W W W W W W W W W W W WW WW WW WW
E|------------------------------------------------------
B|------------------------------------------------------
G|------------------------------------------------------
D|------------------------------------------------------
A|--------------------------------------10--10--10--10--
E|--5--5--5--5--5--5--5--5--7--7--7--7------------------

Stave 8:
t: W W W W W W W W W
E|-----------------------------
B|-----------------------------
G|-----------------------------
D|-----------------------------
A|-----------------------------
E|--5--5--5--5--5--5--5--5--3--

Stave 9:
t: W W W W W W W W W W W W W W W W W W W W WW WW WW WW
E|------------------------------------------------------------------------------
B|------------------------------------------------------------------------------
G|------------------------------------------------------------------------------
D|------------------------------------------------------------------------------
A|------------------------------------------------------------------------------
E|--5--5--5--5--5--5--5--5--3--3--3--3--3--3--3--3--3--3--3--3--12--12--12--12--

http://www.guitartabcreator.com
Guitar Tab Creator is intended to store guitar tab created through the tool. It currently does not support in-line text editing. Any text you place in here will be lost. If you need to comment on your tab, please use the "Tab Notes" section located below.