Sound will begin in 5 seconds

Scales and Licks over D major

01234567891011121314151617181920212223
E
B
G
D
A
E
B
0 1 2 3 4 5 6 7 8 9 10 11 12 13 14 15 16 17 18 19 20 21 22 23
Song Science #1: How Pros Use 6 Chords to Write Hit Songs
(/) Slide Up  (\) Slide Down  (h) Hammer On  (p) Pull Off  (b) Bend (r) Release (v) Vibrato

Stave 1:

E|---------------------------------------------------9--10--
B|-------------------------------------------10--12---------
G|--------------------------------9--11--12-----------------
D|---------------------9--11--12----------------------------
A|----------9--10--12---------------------------------------
E|--10--12--------------------------------------------------

Stave 2:

E|-----------------------------------------7--9--10--
B|-------------------------------7--8--10------------
G|----------------------6--7--9----------------------
D|----------------7--9-------------------------------
A|------7--9--10-------------------------------------
E|--10-----------------------------------------------

Stave 3:

E|-----------------------------------5--7--9--10--
B|--------------------------5--7--8---------------
G|-----------------4--6--7------------------------
D|--------4--5--7---------------------------------
A|--5--7------------------------------------------
E|------------------------------------------------

Stave 4:

E|---------------------------------------7--9--10--
B|-----------------------------7--8--10------------
G|--------------------6--7--9----------------------
D|-----------5--7--9-------------------------------
A|--5--7--9----------------------------------------
E|-------------------------------------------------

Stave 5:

E|----------------------------
B|-----------------7--8--10v--
G|--------------7-------------
D|---------4/7----------------
A|--5p4h5---------------------
E|----------------------------

Stave 6:

E|------------------------------------------------------------------------
B|--10--7--8-----7--------------------------------------------------------
G|------------9-----7--9--6--7-----6--------------------------------------
D|------------------------------9-----7--9--5--7-----5--------------------
A|------------------------------------------------9-----7--9--5--7--4--5--
E|------------------------------------------------------------------------

Stave 7:

E|----2--3--5--7--9---10-----
B|----3--5--7--8--10--10-----
G|----2--4--6--7--9---11-----
D|----0--0--0--0--0---12-----
A|---------------------------
E|---------------------------

Stave 8:

E|--10--12--12/14--10--12--9-----------------------------
B|--10------------------------10-------------------------
G|--11----------------------------11---------------------
D|--12--------------------------------12--11--9--11--12--
A|--_---------------------------------------------------
E|--_---------------------------------------------------

http://www.guitartabcreator.com
Guitar Tab Creator is intended to store guitar tab created through the tool. It currently does not support in-line text editing. Any text you place in here will be lost. If you need to comment on your tab, please use the "Tab Notes" section located below.