Sound will begin in 5 seconds

Yr 12 Music Comp

01234567891011121314151617181920212223
E
B
G
D
A
E
B
0 1 2 3 4 5 6 7 8 9 10 11 12 13 14 15 16 17 18 19 20 21 22 23
Song Science #1: How Pros Use 6 Chords to Write Hit Songs
(/) Slide Up  (\) Slide Down  (h) Hammer On  (p) Pull Off  (b) Bend (r) Release (v) Vibrato

Stave 1:

E|-----------------------------------------------------12/14-12-10p9-9--
B|--h12p10----10-------------------10-----------------------------------
G|---------11----11----11h12p11-12-------9h11p9-9-9---------------------
D|----------------------------------------------------------------------
A|----------------------------------------------------------------------
E|----------------------------------------------------------------------

Stave 2:

E|--9h10p9----10---10-10-10-9h10p9----10---10-10-10-9h10p9------------------12-12/14-12-10p9-9-
B|---------12----------------------12----------------------10-10/12---12-12--------------------
G|---------------------------------------------------------------------------------------------
D|---------------------------------------------------------------------------------------------
A|---------------------------------------------------------------------------------------------
E|---------------------------------------------------------------------------------------------

Stave 3:

E|--7-7--9-9-9-10-10----7-7--9-9-9-10-10----9-9--10-10-10-12-12----14-14-12-12-10p9-9-
B|------------------------------------------------------------------------------------
G|------------------------------------------------------------------------------------
D|------------------------------------------------------------------------------------
A|------------------------------------------------------------------------------------
E|------------------------------------------------------------------------------------

Stave 4:

E|----------------------------------------------10-------10-12-12/14-14-14-12p10----
B|--------------10------------10-12-12----10h12----10h12-------------------------12-
G|-------9h11p9----11----9h11-------------------------------------------------------
D|--9h11----------------------------------------------------------------------------
A|----------------------------------------------------------------------------------
E|----------------------------------------------------------------------------------

Stave 5:

E|----------------------------------------------10-------10-12-12/14-14-14-12p10-10-12-
B|--------------10------------10-12-12----10h12----10h12-------------------------------
G|-------9h11p9----11----9h11----------------------------------------------------------
D|--9h11-------------------------------------------------------------------------------
A|-------------------------------------------------------------------------------------
E|-------------------------------------------------------------------------------------

Stave 6:

E|--12/14-14-14-14-12p10-10----12/14-14-14-14-12p10-10----12/14-14-14-17-14-17-14-17-14-
B|--------------------------------------------------------------------------------------
G|--------------------------------------------------------------------------------------
D|--------------------------------------------------------------------------------------
A|--------------------------------------------------------------------------------------
E|--------------------------------------------------------------------------------------

Stave 7:

E|--10-12/14-14\12-12p10-12p10-12p10-------------------------------10-12/14---14-14-14-12p10----
B|-----------------------------------12----------------10----10/12---------------------------12-
G|----------------------------------------------9h11p9----11------------------------------------
D|-----------------------------------------9h11-------------------------------------------------
A|----------------------------------------------------------------------------------------------
E|----------------------------------------------------------------------------------------------

Stave 8:

E|------------------------------------------5-7/9-10-9h10/12-
B|--------------------------------------5-7------------------
G|------------2------------2-4-4----4/6----------------------
D|------2h4p2---2h4----2/4-----------------------------------
A|--2h4------------------------------------------------------
E|-----------------------------------------------------------

http://www.guitartabcreator.com
Guitar Tab Creator is intended to store guitar tab created through the tool. It currently does not support in-line text editing. Any text you place in here will be lost. If you need to comment on your tab, please use the "Tab Notes" section located below.