Sound will begin in 5 seconds

Song in fsharp minor

01234567891011121314151617181920212223
E
B
G
D
A
E
B
0 1 2 3 4 5 6 7 8 9 10 11 12 13 14 15 16 17 18 19 20 21 22 23
Song Science #1: How Pros Use 6 Chords to Write Hit Songs
(/) Slide Up  (\) Slide Down  (h) Hammer On  (p) Pull Off  (b) Bend (r) Release (v) Vibrato

(W|WW) Whole (H|HH) Half (Q|QQ) Quarter (E|EE) 8th (S|SS) 16th (T|TT) 32nd (X|XX) 64th

Stave 1:
t: S S S S S S S S S S S S S S S S S S S S S S S S
E|--------------------------------------|--------------------------------------|--
B|--------------------------------------|--------------------------------------|--
G|--------------------------------------|--------------------------------------|--
D|--------------------------------------|--------------------4--2-----2--------|--
A|--------------------4--2-----2--------|--------------------------4-----4--2--|--
E|--2--2--2--5--2--2--------5-----5--4--|--2--2--2--5--2--2--------------------|--

Stave 2:
t: S S S S S S S S S S S S S S S S S S S S S S S S
E|--------------------------------------|--------------------------------------|--
B|--------------------------------------|--------------------------------------|--
G|--------------------------------------|--------------------------------------|--
D|--------------------------------------|--------------------2-----2-----------|--
A|--------------------2-----2-----------|-----------------------5-----2-----2--|--
E|--0--0--0--2--0--0-----5-----5--4--2--|--0--0--0--2--0--0--------------5-----|--

Stave 3:
t: S S S S S S S S S S S S S S S S S S S S S S S S
E|--------------------------------------|--------------------------------------|--
B|--------------------------------------|--------------------------------------|--
G|--------------------------------------|--------------------------------------|--
D|-----------------------------4--2-----|-----------------------------6--4-----|--
A|--2--2--2--4--2--2--5--2--2--------5--|--4--4--4--5--4--4--7--4--4--------7--|--
E|--------------------------------------|--------------------------------------|--

Stave 4:
t: S S S S S S S S S S S S S S S S S S S S S S S S
E|--------------------------------------|--------------------------------------|--
B|--7--5--------------------------------|--------------------------------------|--
G|--------6--4--------7-----5-----------|--6--5--------------------------------|--
D|--------------7--4-----7-----5--------|--------6--3--------7--6--------------|--
A|--------------------------------8--5--|--------------6--4--------7--4--------|--
E|--------------------------------------|--------------------------------7--5--|--

Stave 5:
t: S E E S Q S E E S E E E S E E S S S E E E S S S S S S S
E|-----------------|-----------------------|-----------------|-----------------------------------
B|-----------------|-----------------------|-----------------|-----------------------------------
G|--------------6--|-----------------------|--------------6--|-----------------------------------
D|--------------6--|-----------------------|--------------6--|-----------------------------------
A|--------------4--|--------------7--4--2--|--------------4--|-----------------4--4--4--4--4--4--
E|--2--2--2--2-----|--2--2--2--2--5--2--0--|--2--2--2--2-----|--2--2--2--2--2--2--2--2--2--2--2--

Stave 6:
t: E S S S S Q E S S S S S S S E S S S S Q E S S S S Q Q Q
E|--------------------|--------------------------|--------------------|--------------------------
B|--------------------|--------------------------|--------------------|--------------------------
G|-----------------4--|--------------------------|-----------------4--|-----------------4--4--4--
D|-----------------4--|-----------------7--6--4--|-----------------4--|-----------------4--4--4--
A|--2--2--2--2--2--2--|--2--2--2--2--2--5--4--2--|--2--2--2--2--2--2--|--2--2--2--2--2--2--2--2--
E|--------------------|--------------------------|--------------------|--------------------------

Stave 7:
t: E E E Q E E E E E E E E E Q E E E S S S S S S
E|--------------|--------------------|--------------|-----------------------------|--
B|--------------|--------------------|--------------|-----------------------------|--
G|-----------7--|--------------------|-----------7--|-----------7--6--4-----------|--
D|-----------7--|-----------9--7--6--|-----------7--|--------------------7--6--4--|--
A|--4--4--4--5--|--4--4--4--7--5--4--|--4--4--4--5--|--4--4--4--------------------|--
E|--------------|--------------------|--------------|-----------------------------|--

Stave 8:
t: E E E E S E S E E E E E E E EE E E E E E S S S S E E E
E|-----------------------------|---------------------------|--------------------------------
B|-----------------------------|---------------------------|--------------------------------
G|-----------2--2--------------|---------------------------|-----------7--6--4--------------
D|--------0--------2--2--4-----|--0-----7--9--7------------|--------0-----------4-----7-----
A|-----0-----------------------|-----0-----------10--9-----|-----0-----------------7--------
E|--2-----------------------0--|------------------------0--|--7--------------------------0--

Stave 9:
t: E E E E E E Q
E|-----------------------|--
B|-----------------------|--
G|--------------1-----4--|--
D|--------0--2-----2-----|--
A|-----0-----------------|--
E|--4--------------------|--

Stave 10:
t: W
E|-----|--|--|--|--
B|-----|--|--|--|--
G|-----|--|--|--|--
D|--4--|--|--|--|--
A|--4--|--|--|--|--
E|--2--|--|--|--|--

Stave 11:
t: Q Q Q Q Q Q Q
E|--------2--2--------------------------------------
B|--------2--2--------------------------------------
G|--4--4--2--2--------------------------------------
D|--4--4--2--2--2--2--------------------------------
A|--2--2--4--4--2--2-----2--------------------------
E|--0--0--2--2--0--0-----0--------------------------

http://www.guitartabcreator.com
Guitar Tab Creator is intended to store guitar tab created through the tool. It currently does not support in-line text editing. Any text you place in here will be lost. If you need to comment on your tab, please use the "Tab Notes" section located below.