Sound will begin in 5 seconds

Mr Big by Free

Chords
01234567891011121314151617181920212223
E
B
G
D
A
E
B
0 1 2 3 4 5 6 7 8 9 10 11 12 13 14 15 16 17 18 19 20 21 22 23
Song Science #1: How Pros Use 6 Chords to Write Hit Songs
(/) Slide Up  (\) Slide Down  (h) Hammer On  (p) Pull Off  (b) Bend (r) Release (v) Vibrato

Stave 1:

G|-----------12\9--|-----------12\9--|-----------9--------|-----------|-----------12\9--|-----------12\9--|--
D|-----------------|-----------------|--------------9-----|-----------|-----------------|-----------------|--
A|--7--------------|--7--------------|--7--------------7--|--7--------|--7--------------|--7--------------|--
E|-----7--0--------|-----7--0--------|-----7--0-----------|-----7--0--|-----7--0--------|-----7--0--------|--

Stave 2:

G|-----------9-----9--|-----------7--6--|-----------12\9--|-----------12\9--|---------------------|--
D|--------------9-----|-----------------|-----------------|-----------------|-----------10h12--10\|--
A|--7-----------------|--7--------------|--7--------------|--7--------------|--7------------------|--
E|-----7--0-----------|-----7--0--------|-----7--0--------|-----7--0--------|-----7--0------------|--

Stave 3:

G|-----------9--|--9--|-----|-----------------|-----------9--|--9--|-----|-----------------|-----------12\9--
D|--------------|--9--|--9--|-----------------|--------------|--9--|--9--|-----------------|-----------------
A|--7-----------|--7--|--9--|--------4--5--6--|--7-----------|--7--|--9--|--------4--5--6--|--7--------------
E|-----7--0-----|-----|--7--|--5--5-----------|-----7--0-----|-----|--7--|--5--5-----------|-----7--0--------

Stave 4:

G|-----------9-----|-----------12\9--|-----------7\6/7\6/7\6--|-----------12\9--|-----------|--
D|--------------9--|-----------------|------------------------|-----------------|-----------|--
A|--7--------------|--7--------------|--7---------------------|--7--------------|--7--------|--
E|-----7--0--------|-----7--0--------|-----7--0---------------|-----7--0--------|-----7--0--|--

Stave 5:

G|------------------|-----------12\9--|-----------9--|--9--|-----|-----------------|-----------9--|--
D|-----------10h12--|-----------------|--------------|--9--|--9--|-----------------|--------------|--
A|--7---------------|--7--------------|--7-----------|--7--|--9--|--------4--5--6--|--7-----------|--
E|-----7--0---------|-----7--0--------|-----7--0-----|-----|--7--|--5--5-----------|-----7--0-----|--

Stave 6:

G|--9--|-----|-----------------|--
D|--9--|--9--|-----------------|--
A|--7--|--9--|--------4--5--6--|--
E|----|--7--|--5--5-----------|--

Stave 7:

G|--9--|--7--|--
D|--9--|--7--|--
A|--7--|--5--|--
E|----|-----|--

Stave 8:

G|--------------------------------------6--7--8--9--|--7--6-----9--7--6--7--6-----9--7--6--7--6--------|--------------------------------------------------|--
D|--------------------------6--7--8--9--------------|--------9-----------------9-----------------9--7--|--6-----------------------------------------------|--
A|--------------4--5--6--7--------------------------|--------------------------------------------------|-----7--5--7--4--------------4--5--6--7-----------|--
E|--7--5--6--7--------------------------------------|--------------------------------------------------|-----------------4--5--6--7--------------5--6--7--|--

Stave 9:

G|-----------------11--14--|--13--------------7--6--------------------------|--------------------------------------------------|--
D|-------4--7--12----------|------14--12--11--------9--7--6-----------------|--------------------------------------------------|--
A|----5--------------------|---------------------------------7--5--4--7--4--|--5--4-----7--5--4--5--4-----7--4-----4-----4-----|--
E|-------------------------|------------------------------------------------|--------7-----------------7--------7-----7-----7--|--

Stave 10:

G|-----------------------------------------|--------------|--------------------------------------------6--6--|--
D|-----------------------------------------|--------------|--------------------6--6--6--7--7--7--9--9--------|--
A|--7--4-----------------------4--5--6--7--|--5--4--------|--7--7--7--9--9--9--------------------------------|--
E|--------7--5--4--5--5--6--7--------------|--------7--7--|--------------------------------------------------|--

Stave 11:

G|--7--7--7--9--9--9--11--11--11--12--12--12--14--12--11--12b14--
D|---------------------------------------------------------------
A|---------------------------------------------------------------
E|---------------------------------------------------------------

http://www.guitartabcreator.com
Guitar Tab Creator is intended to store guitar tab created through the tool. It currently does not support in-line text editing. Any text you place in here will be lost. If you need to comment on your tab, please use the "Tab Notes" section located below.