Sound will begin in 5 seconds

simple seventh chord solo

01234567891011121314151617181920212223
E
B
G
D
A
E
B
0 1 2 3 4 5 6 7 8 9 10 11 12 13 14 15 16 17 18 19 20 21 22 23
Song Science #1: How Pros Use 6 Chords to Write Hit Songs
(/) Slide Up  (\) Slide Down  (h) Hammer On  (p) Pull Off  (b) Bend (r) Release (v) Vibrato

Stave 1:

E|---------------------------------------------------6--3-----
B|--6----6--6----6--6----6------------------------5-----------
G|--5h7--7--5h7--7--5h7--5---------------------3-----------5--
D|--------------------------8--5\3--3--3\2--2-----------------
A|------------------------------------------------------------
E|------------------------------------------------------------

Stave 2:

E|---------------------------5--6--7-------------3h6p3--
B|---------------------------4--5--6-------3--6---------
G|---------------------------5--6--7--3h5---------------
D|--3h5--5--5--3h5--5--5--5--3--4--5--------------------
A|------------------------------------------------------
E|------------------------------------------------------

Stave 3:

E|---------------------------------------------------------------10----------10--10--10--10--
B|--11-----11--11-----11--11-----11--------------------------11------11------11--11--11--11--
G|--10h12--12--10h12--12--10h12--10------------------10--12--------------12--12--12--12--12--
D|-----------------------------------12--10--10--12------------------------------------------
A|-------------------------------------------------------------------------------------------
E|-------------------------------------------------------------------------------------------

Stave 4:

E|--13-15--13--5--6--7-------------3h6p3--------------------------------------------------
B|--13/15--13--4--5--6-------3--6---------13-----13--13-----13--13-----13-----------------
G|-------------5--6--7--3h5---------------12h14--14--12h14--14--12h14--12-----------------
D|-------------3--4--5-----------------------------------------------------15--12\10--12--
A|----------------------------------------------------------------------------------------
E|----------------------------------------------------------------------------------------

Stave 5:

E|--------------------------------------------------------
B|--11-----11------------3--3--3--3--------3--3--3--3-----
G|--10h12--10------------4--4--4--4--3--3--4--4--4--4--5--
D|-------------12--10\8--3--3--3--3--2--2--3--3--3--3--4--
A|-----------------------------------3--3--------------5--
E|--------------------------------------------------------

Stave 6:

E|------------------
B|--6----6----------
G|--5h7--5----------
D|----------8--5/8--
A|------------------
E|------------------

http://www.guitartabcreator.com
Guitar Tab Creator is intended to store guitar tab created through the tool. It currently does not support in-line text editing. Any text you place in here will be lost. If you need to comment on your tab, please use the "Tab Notes" section located below.