Sound will begin in 5 seconds

And Your Bird Can Sing

01234567891011121314151617181920212223
E
B
G
D
A
E
B
0 1 2 3 4 5 6 7 8 9 10 11 12 13 14 15 16 17 18 19 20 21 22 23
Song Science #1: How Pros Use 6 Chords to Write Hit Songs
(/) Slide Up  (\) Slide Down  (h) Hammer On  (p) Pull Off  (b) Bend (r) Release (v) Vibrato

Stave 1:

E|----------------------------------------0---------------------0-----0--------2--0-----
B|--9--7--5--7--5--4--5--4--2--0--------0--0--7--9--9--9--10--9--0--0--0--7--9--2--0--2--
G|--9--8--6--8--6--4--6--4--2--1--2--1--1-----8--9--9--9--11--9-----1-----8--9--------1--
D|-------------------------------4--2---------------------------------------------------
A|--------------------------------------------------------------------------------------
E|--------------------------------------------------------------------------------------

Stave 2:

E|--------------------------------------------------------12--12--12--14--12--------------
B|--7--9--10--12--10--9--7--5--4--5--7--9--10--12--14--16--12--12--12--14--12--12----------
G|--8--9--11--13--11--9--8--6--4--6--8--9--11--13--14--16--------------------------13------
D|------------------------------------------------------------------------------------14--
A|----------------------------------------------------------------------------------------
E|----------------------------------------------------------------------------------------

http://www.guitartabcreator.com
Guitar Tab Creator is intended to store guitar tab created through the tool. It currently does not support in-line text editing. Any text you place in here will be lost. If you need to comment on your tab, please use the "Tab Notes" section located below.