Sound will begin in 5 seconds

all of me

01234567891011121314151617181920212223
E
B
G
D
A
E
B
0 1 2 3 4 5 6 7 8 9 10 11 12 13 14 15 16 17 18 19 20 21 22 23
Song Science #1: How Pros Use 6 Chords to Write Hit Songs
(/) Slide Up  (\) Slide Down  (h) Hammer On  (p) Pull Off  (b) Bend (r) Release (v) Vibrato

Stave 1:

E|--------------------------------------------------------------------------------------------------------
B|--------------------------------------------------------------------------------------------------------
G|-----5--5--5--5--5--5-----5--5--5--5--5--------------5--5--6--5-----6--6--5-----------------------------
D|--8--------------------6-----------------8--6--------------------6-----------6--8--8--------------------
A|-----------------------------------------------8--8-----------------------------------------------------
E|--------------------------------------------------------------------------------------------------------

Stave 2:

E|--------------------------------------------------------------------------------------------------
B|--------------------------------------------------------------------------------------------------
G|-----5--------5--5--5--5--5--5--5-----5--5--5--8--8--5-----------5--5--6--5-----6--6--5-----------
D|--------6--------------------------6--------------------8--6-----------------6-----------6--8--8--
A|-----------8--------------------------------------------------8-----------------------------------
E|--------------------------------------------------------------------------------------------------

Stave 3:

E|--------------------------------------------------------------------------------------------------------
B|--------------6--------------------------------------6--------------------------4-----6--6--------------
G|--5-----6--------8--6--5--------------------------------8--6--5--5-----------5-----5--------5-----------
D|-----8-----8--------------8--6--5--6--5-----------8-----------------8--6--8-----------------------------
A|-----------------------------------------8--6--8--------------------------------------------------------
E|--------------------------------------------------------------------------------------------------------

Stave 4:

E|--
B|--
G|--
D|--
A|--
E|--

Stave 5:

E|--
B|--
G|--
D|--
A|--
E|--

Stave 6:

E|--------------------------------------------------------------------------------------------
B|-----------------------------------------------------------------4-----6--6--9--8--6--------
G|--------5--5--5--5--------------------5--5--5-----------------5-----5-----------------5--5--
D|--8--6--------------8--8--8--6--8--8-----------8--8--8--6--8--------------------------------
A|--------------------------------------------------------------------------------------------
E|--------------------------------------------------------------------------------------------

Stave 7:

E|--------------------------------------------------------------------------------------------
B|-----------------------------------------------------------9--8--6-----------------------9--
G|--5--5--5-----------------5--5--5-----------------5--6--8-----------5--5--5-----5--6--8-----
D|-----------8--8--8--6--8-----------8--8--8--6--8-----------------------------8--------------
A|--------------------------------------------------------------------------------------------
E|--------------------------------------------------------------------------------------------

Stave 8:

E|--------------------
B|--8--6--6-----------
G|-----------5--5-----
D|-----------------8--
A|--------------------
E|--------------------

Stave 9:

E|----------------------------------------------------------------------------------------------
B|--13--13--13--13--13--13--13------13--13--13--13--13------------------13--13--14--13----------
G|------------------------------13----------------------15--13--------------------------13--15--
D|--------------------------------------------------------------15--15--------------------------
A|----------------------------------------------------------------------------------------------
E|----------------------------------------------------------------------------------------------

Stave 10:

E|----------------------------------------------------------------------------------------------
B|------13--------------16--13----------16--13----------13--13--13--14--14--13------------------
G|--15------13------------------13--13----------13--13--------------------------15--13----------
D|--------------15--15------------------------------------------------------------------15--15--
A|----------------------------------------------------------------------------------------------
E|----------------------------------------------------------------------------------------------

Stave 11:

E|----------------------------------------------------------13----------------------------------
B|--13--13--14--13------14--13--------------13------14----------16--14--13--14--13--------------
G|------------------13----------13--15--15------15------15--------------------------15--13--12--
D|----------------------------------------------------------------------------------------------
A|----------------------------------------------------------------------------------------------
E|----------------------------------------------------------------------------------------------

Stave 12:

E|------------------13-----------------------------------------------------------------------------
B|----------------------16--14--13--13------------------16------18--18--13-------------------------
G|--------------15----------------------15--13--15--17------17--------------15--13--15b15--15--15--
D|--15--13--15-------------------------------------------------------------------------------------
A|-------------------------------------------------------------------------------------------------
E|-------------------------------------------------------------------------------------------------

Stave 13:

E|-----------------------------------------------------------------16--15--13--13--13-------------
B|-----------------13--13--13--------------------------16------18----------------------13--13-----
G|--15r15--15--13--------------15--15--15--13--15--17------17------------------------------15--15b
D|------------------------------------------------------------------------------------------------
A|------------------------------------------------------------------------------------------------
E|------------------------------------------------------------------------------------------------

Stave 14:

E|-----------------------------------------------------------------------------16--15--13--13----------
B|---------------------------------13--13--13----------------------13--14--16------------------13------
G|--15--15--15--15r15--15--13--15--------------15--15--15--13--15------------------------------15--15--
D|-----------------------------------------------------------------------------------------------------
A|-----------------------------------------------------------------------------------------------------
E|-----------------------------------------------------------------------------------------------------

Stave 15:

E|---------------------------------16--15--13------------------------------
B|---------------------13--14--16------------------------------------------
G|--15--15--15r15--15--------------------------15b15--15--15--15r15--15--3b
D|-------------------------------------------------------------------------
A|-------------------------------------------------------------------------
E|-------------------------------------------------------------------------

http://www.guitartabcreator.com
Guitar Tab Creator is intended to store guitar tab created through the tool. It currently does not support in-line text editing. Any text you place in here will be lost. If you need to comment on your tab, please use the "Tab Notes" section located below.