Sound will begin in 5 seconds

French Film Noir !!

01234567891011121314151617181920212223
E
B
G
D
A
E
B
0 1 2 3 4 5 6 7 8 9 10 11 12 13 14 15 16 17 18 19 20 21 22 23
Song Science #1: How Pros Use 6 Chords to Write Hit Songs
(/) Slide Up  (\) Slide Down  (h) Hammer On  (p) Pull Off  (b) Bend (r) Release (v) Vibrato

Stave 1:

E|-----5-----5-----x-----------5-----7-----------5-----
B|-----5-----6-----3-----------5-----6-----------5-----
G|-----5-----5-----4-----------5-----7-----7-----5-----
D|-----5-----------3-----------7-----6-----6-----4-----
A|-----x-----5-----------2-----8-----------7-----x-----
E|-----5-----x-----3-----3-----------------------5-----

Stave 2:

E|-----5-----5-----5-----5-----------3-----2-----
B|-----5-----5-----5-----5-----1-----3-----3-----
G|-----5-----5-----5-----5-----------------2-----
D|-----7-----6-----5-----4-----2-----------------
A|-----x-----x-----x-----x-----3-----2-----------
E|-----x-----x-----5-----5-----------3-----------

Stave 3:

E|-----2-----4-----5-----6-----7-----------------2-----
B|-----3-----3-----5-----5-----7-----5-----3-----3-----
G|-----4-----4-----5-----6-----7-----7-----5-----4-----
D|-----5-----3-----5-----5-----7-----6-----4-----5-----
A|-----------------x-----------x-----7-----5-----------
E|-----------------5-----------7-----x-----x-----------

http://www.guitartabcreator.com
Guitar Tab Creator is intended to store guitar tab created through the tool. It currently does not support in-line text editing. Any text you place in here will be lost. If you need to comment on your tab, please use the "Tab Notes" section located below.