Sound will begin in 5 seconds

dear marceline

Chords
01234567891011121314151617181920212223
E
B
G
D
A
E
B
0 1 2 3 4 5 6 7 8 9 10 11 12 13 14 15 16 17 18 19 20 21 22 23
Song Science #1: How Pros Use 6 Chords to Write Hit Songs
(/) Slide Up  (\) Slide Down  (h) Hammer On  (p) Pull Off  (b) Bend (r) Release (v) Vibrato

Stave 1:

E|--------------------------------------------------------------------------------------------
B|-----7--7-----7--7-----7--7-----7--7-----7--7-----5--5-----5--5-----3--3-----3--3-----2--2--
G|-----7--7-----7--7-----6--6-----6--6-----4--4-----4--4-----4--4-----4--4-----3--3-----3--3--
D|--9--------9--------7--------7--------5--------5--------4--------4--------4--------4--------
A|--------------------------------------------------------------------------------------------
E|--------------------------------------------------------------------------------------------

Stave 2:

E|-------------------------------------------------------------------9---
B|-----7--7-----7--8-----8--8-----8--8-----7--7-----7--7-----11--11--11--
G|-----8--8-----8--8-----9--9-----9--9-----7--7-----7--7-----9---9---9---
D|--7--------7--------------------------9--------9-----------11--11--11--
A|--------------------7--------7--------------------------9----------9---
E|-----------------------------------------------------------------------

Stave 3:

E|-----------------------------------------------------------
B|-----7--7-----7-----5--5-----5-----7--7-----5-----5--3--2--
G|-----7--7-----7-----7--7-----6-----4--4-----4-----3--3--3--
D|--9--------9-----7--------7-----5--------5-----4--------4--
A|-----------------------------------------------------------
E|-----------------------------------------------------------

Stave 4:

E|--------------------------------------------------------------------------------7--9--
B|-----7--7-----7--7-----5--5-----5--5-----7--7-----5--5-----2--3--2-----------7--------
G|-----7--7-----7--7-----7--7-----6--6-----4--4-----4--4-----3--3--3--------7-----------
D|--9--------9--------7--------7--------5--------5--------4-----------4--9--------------
A|--------------------------------------------------------------------------------------
E|--------------------------------------------------------------------------------------

http://www.guitartabcreator.com
Guitar Tab Creator is intended to store guitar tab created through the tool. It currently does not support in-line text editing. Any text you place in here will be lost. If you need to comment on your tab, please use the "Tab Notes" section located below.