Sound will begin in 5 seconds

Un día

01234567891011121314151617181920212223
E
B
G
D
A
E
B
0 1 2 3 4 5 6 7 8 9 10 11 12 13 14 15 16 17 18 19 20 21 22 23
(/) Slide Up  (\) Slide Down  (h) Hammer On  (p) Pull Off  (b) Bend (r) Release (v) Vibrato

intro x2

G|--------------------------
D|--------------------------
A|--------------------------
E|--5--5--5--5--3--3--1--1--

Inicio

G|--------------------------------------------------------------------------------------------------------
D|--------------------------------------0--1--2--1--2--1--2-----------------------------------------------
A|-----------------------------0--2--3--------------------------------------------------------------------
E|--8--8--3--3--5--5--0--1--3--------------------------------5--5--5--5--0--0--5--------------------------

Parte 1

G|--------------------------------------------------------------------------------------------------------
D|--------------------------------------------------------------0--1--2--1--2--1--2-----------------------
A|--------------------------3--3-----------------------0--2--3--------------------------------------------
E|--5--5--5--5--3--3--1--1--------3--3--5--5--0--1--3--------------------------------5--5--5--5--0--0--5--

Parte 2

G|-----------------------------------------------------------------------
D|-----------------------------------------------------------------------
A|-----------------------------------------------------------------------
E|--5--8--8--5--8--8--8--8--5--8--8--5--8--8--5--------5--------------5--

Parte 3

G|--------------------------------------------------
D|--------------------------------------------------
A|--------------------------------------------------
E|--5--5--5--5--3--3--1--1--5--5--5--5--3--3--1--1--

parte 4

G|--------------------------------------------------------------------------------
D|--------------------------------------0--1--2--1--2--1--2-----------------------
A|--3--3-----------------------0--2--3--------------------------------------------
E|--------3--3--5--5--0--1--3--------------------------------5--5--5--5--0--0--5--

Final

G|--------------------------------------------------------------------------------------------------------
D|--------------------------------------------------------------0--1--2--1--2--1--2-----------------------
A|--------------------------3--3-----------------------0--2--3--------------------------------------------
E|--5--5--5--5--3--3--1--1--------3--3--5--5--0--1--3--------------------------------5--5--5--5--0--0--5--

http://www.guitartabcreator.com
Guitar Tab Creator is intended to store guitar tab created through the tool. It currently does not support in-line text editing. Any text you place in here will be lost. If you need to comment on your tab, please use the "Tab Notes" section located below.