Sound will begin in 5 seconds

Take Flight

01234567891011121314151617181920212223
E
B
G
D
A
E
B
0 1 2 3 4 5 6 7 8 9 10 11 12 13 14 15 16 17 18 19 20 21 22 23
Song Science #1: How Pros Use 6 Chords to Write Hit Songs
(/) Slide Up  (\) Slide Down  (h) Hammer On  (p) Pull Off  (b) Bend (r) Release (v) Vibrato

Stave 1:

E|-----10--8--------------------8--10--11--10------8--10------8-----------------10--8----------
B|--8---------10--8--8--10--11-----------------11---------11-----11--10------8---------10--11--
G|-----------------------------------------------------------------------10--------------------
D|---------------------------------------------------------------------------------------------
A|---------------------------------------------------------------------------------------------
E|---------------------------------------------------------------------------------------------

Stave 2:

E|----------8------8--10--10/11--10------8--10--15--15--13------13--
B|--10--11-----11--------------------11---------------------13------
G|------------------------------------------------------------------
D|------------------------------------------------------------------
A|------------------------------------------------------------------
E|------------------------------------------------------------------

Stave 3:

E|--15--18--17------15--------------15--18--17------15------15--22--20--20--22--20--18--17--18--17--
B|--------------18------18--15--18--------------18------18------------------------------------------
G|--------------------------------------------------------------------------------------------------
D|--------------------------------------------------------------------------------------------------
A|--------------------------------------------------------------------------------------------------
E|--------------------------------------------------------------------------------------------------

Stave 4:

E|--18--17--15------------------------------
B|--------------18--15----------------------
G|----------------------17--15--14----------
D|----------------------------------15--17--
A|------------------------------------------
E|------------------------------------------

Stave 5:

E|--------------------------------------------------------------------------------------------------
B|--------------------------------------------------------------------------------------------------
G|--------------------------------------------------15----------15----------15------------------15--
D|--17----------17----------17------------------17------17----------17----------17----------17------
A|------17--13------17--13------17--13------13--------------17----------17----------17--13----------
E|--------------------------------------15----------------------------------------------------------

Stave 6:

E|--------------------------------------------------------------------------------------------------
B|--15----------15----------15----------------------13----------13----------13----------------------
G|------15----------15----------15--------------15------14----------14----------14--------------14--
D|----------15----------15----------15------15--------------15----------15----------15------15------
A|--------------------------------------17----------------------------------------------17----------
E|--------------------------------------------------------------------------------------------------

Stave 7:

E|--------------------------------------------------------------------------------------------------
B|--------------------------------------------------------------------------------------------------
G|--15--12------15--12------15--12--15--12--------------------------12----------12------------------
D|----------12----------12------------------12--------------12--15------13----------13------13------
A|----------------------------------------------13------13------------------13----------13------13--
E|--------------------------------------------------15----------------------------------------------

Stave 8:

E|--------------------------------------------------------------------------------------
B|----------------------------------15----------15------------------15------------------
G|--12------14------15------17----------15----------15------15----------15------15------
D|------13------13------13------13----------15----------15------15----------15------15--
A|--------------------------------------------------------------------------------------
E|--------------------------------------------------------------------------------------

http://www.guitartabcreator.com
Guitar Tab Creator is intended to store guitar tab created through the tool. It currently does not support in-line text editing. Any text you place in here will be lost. If you need to comment on your tab, please use the "Tab Notes" section located below.