Sound will begin in 5 seconds

I´m the Haunted

Chords
01234567891011121314151617181920212223
E
B
G
D
A
E
B
0 1 2 3 4 5 6 7 8 9 10 11 12 13 14 15 16 17 18 19 20 21 22 23
Song Science #1: How Pros Use 6 Chords to Write Hit Songs
(/) Slide Up  (\) Slide Down  (h) Hammer On  (p) Pull Off  (b) Bend (r) Release (v) Vibrato

Stave 1:

E|-----------------------------------------------------------------------------------------------------------------
B|-----------------------------------------------------------------------------------------------------------------
G|-----------------------------------------------------------------------------------------------------------------
D|-----------------------------------------------------------------------------------------------------------------
A|-----------------------------------------------------------------------------------------------------------------
E|-------------------------12--13-----------10--12--------8--10--------------12--13-----------13--15--------15--17--
A|----0--0----0--0--0--0----------0--0--0----------0--0---------0--0--0--0----------0--0--0----------0--0----------

Stave 2:

E|----------------------------------------------------------------------------------------------------------
B|----------------------------------------------------------------------------------------------------------
G|----------------------------------------------------------------------------------------------------------
D|----------------------------------------------------------------------------------------------------------
A|----------------------------------------------------------------------------------------------------------
E|--------------12--13-----------10--12--------8--10------------------8------12------12--0--8--0--10--0--7--
A|--0--0--0--0----------0--0--0----------0--0---------10--10--10--10-----10------10-------------------------

Stave 3:

E|----------------------------------------------------------------------------------------------------------------------------------------------
B|----------------------------------------------------------------------------------------------------------------------------------------------
G|----------------------------------------------------------------------------------------------------------------------------------------------
D|----------------------------------------------------------------------------------------------------------------------------------------------
A|--------------------------------------------------------------------------7--8--7------7---------------------------5--0-----------------7--0--
E|--5--0--5--0--8--0--5--0--5--0--7--0--5--0--7--0--5--0--5--0--8--0--5--0-----------10-----10--8--7--8--4--0--4--0--------4--0--4--0--4--------
A|----------------------------------------------------------------------------------------------------------------------------------------------

Stave 4:

E|--------------------------------------------------------------------------
B|--------------------------------------------------------------------------
G|--------------------------------------------------------------------------
D|--------------------------------------------------------------------------
A|--------3--0--------------5--0--------------------------------------------
E|--4--0--------4--0--4--0--------4--0--1--1--1--1--1--1--1--1--1--1--1--0--
A|--------------------------------------------------------------------------

Stave 5:

E|------------------------------------------------------------------------------------------------------------------------------------------
B|------------------------------------------------------------------------------------------------------------------------------------------
G|------------------------------------------------------------------------------------------------------------------------------------------
D|------------------------------------------------------------------------------------------------------------------------------------------
A|------------------------------------------------------------------------------------------------------------------------------------------
E|------------------------------------------------------------------------------------------------------------------------------------------
A|--0--0--0--0--8--7--0--0--7--5--0--0--5--3--0--0----0--0--8--7--0--0--7--5--0--0--0--1----0--0--0--0--8--7--0--0--7--5--0--0--5--3--0--0--

Stave 6:

E|---------------------------------------------
B|---------------------------------------------
G|---------------------------------------------
D|---------------------------------------------
A|---------------------------------------------
E|----------------------------------------3--5/
A|----0--0--0--0--8--7--0--0--7--5--0--0-------

Stave 7:

E|----------------------------------------------------------------------------------------------------------------------------
B|----------------------------------------------------------------------------------------------------------------------------
G|----------------------------------------------------------------------------------------------------------------------------
D|--------------------------------3--------3--------------------------------------------------12--12--12--12--12--12--12--12--
A|------0--0--0--0--0--0--0----3-----3--3-----3--8--8--8--8--8--8--8--7--7--7--7--7--7--7--7--11--11--11--11--11--11--11--11--
E|------0--0--0--0--0--0--0----3--3--3--3--3--3--8--8--8--8--8--8--8--7--7--7--7--7--7--7--7--11--11--11--11--11--11--11--11--
A|------0--0--0--0--0--0--0----3--3--3--3--3--3--8--8--8--8--8--8--8--7--7--7--7--7--7--7--7--11--11--11--11--11--11--11--11--

Stave 8:

E|--------------------------------------------------------------------------
B|--------------------------------------------------------------------------
G|--------------------------------------------------------------------------
D|--------------------------------------------------------------------------
A|--------------------------------------------------------------------------
E|--------------------------------5--4--------------------------------5--6--
A|--0--1--0--8--7--5--7--8--5--3--------0--1--0--8--7--5--7--8--5--3--------

Stave 9:

E|----------------
B|----------------
G|--3--10--10--6--
D|--2--9---9---6--
A|--0--8---7---6--
E|--0--8---7---4--
A|--0--8---7------

Stave 10:

E|-------------7---------------------------7--------------------------8--------------8-----------8--
B|--------------------------------------------------------------------------------------------------
G|-------------5---------------------------5--------------------------6--------------6-----------6--
D|--------------------------------------------------------------------------------------------------
A|--------------------------------------------------------------------------------------------------
E|--------------------------------------------------------------------------------------------------
A|--0--0--0--0--0--0--0--0--0--0--0--0--0v-----0--0--0--0--5--5--5--5--5--5--5--5--5-----5--5--5-----

Stave 11:

E|----------------7-----------------7--------7--
B|----------------------------------------------
G|----------------5-----------------5--------5--
D|----------------------------------------------
A|----------------------------------------------
E|----------------------------------------------
A|----3--3--3--3-----3--3--2--2--2-----2--2-----

Stave 12:

E|----------------------------
B|----------------------------
G|--3--13--11--8--10--11--13--
D|--2--12--10--7--9---10--12--
A|--0--10--8---5--7---8---10--
E|--0--10--8---5--7---8---10--
A|--0--10--8---5--7---8---10--

http://www.guitartabcreator.com
Guitar Tab Creator is intended to store guitar tab created through the tool. It currently does not support in-line text editing. Any text you place in here will be lost. If you need to comment on your tab, please use the "Tab Notes" section located below.