Intro 1

Chords
01234567891011121314151617181920212223
E
B
G
D
A
E
B
0 1 2 3 4 5 6 7 8 9 10 11 12 13 14 15 16 17 18 19 20 21 22 23
E|----------------------------------------------------------
B|----------------------------------------------------------
G|----------------------------------------------------------
D|-0-----3-------5--------6----5-3--------------------------
A|-0-----3-------5--------6----5-3--------------------------
D|-0-----3-------5--------6----5-3--------------------------

E|----------------------------------------------------------
B|----------------------------------------------------------
G|----------------------------------------------------------
D|------3p0------5p0------6p0-5p0-3p0-----------------------
A|------3p0------5p0------6p0-5p0-3p0-----------------------
D|-0-00-3p0-0-00-5p0-0-00-6p0-5p0-3p0--(x4)-----------------
Tab Notes
Intro
[[],[],[],[],[],[]]

Member for

8 years 3 months
Submitted by IIIMetallica on Sun, 2012-02-26 18:37