Sound will begin in 5 seconds

Tamna je noć

Chords
01234567891011121314151617181920212223
E
B
G
D
A
E
B
0 1 2 3 4 5 6 7 8 9 10 11 12 13 14 15 16 17 18 19 20 21 22 23
Song Science #1: How Pros Use 6 Chords to Write Hit Songs
(/) Slide Up  (\) Slide Down  (h) Hammer On  (p) Pull Off  (b) Bend (r) Release (v) Vibrato

Stave 1:

E|-----0-----0-----0--------------------------0--------------------0-----------------2-----------------4-----
B|-----1-----1-----0--------------------------1-----------------1-----------------0--------------------3-----
G|-----2-----2-----------------------------------2-----------2-----------------2--------------------4--------
D|--------------------2--0--------------------------------2-----------------1--------------------2-----------
A|--0-----3-----2-----------3--2--0--------0-----------3-----------------2--------------------2--------------
E|-----------------------------------------------------------------------------------------0-----------------

Stave 2:

E|--5--8--7--5-----------1--3-----5--3-----------------------------------0--1--0-----5--0--------0-----------
B|--------------5--------3--------------6-----5--5--3--5--------------3-----------3--------3--1--1--------0--
G|--------------5--5-----2--------------------5-----------5--5--------2-----------------------------0-----2--
D|--------------------0--------------------------------------------0-----------------------------------------
A|--------------------------------------------3--------------------------------------0--------3--------2-----
E|--5--------8--------------------3--------------------3-----------------------------------------------------

Stave 3:

E|-----------------0-----------------0-----------------2-----------------4-----5--8--7--5-----------1--
B|--1--3--1--0--------------------1-----------------0--------------------3-----------------5--------3--
G|--------------2--------------2-----------------2--------------------4--------------------5--5-----2--
D|-----------------2--------2-----------------1--------------------2-----------------------------0-----
A|--------------0--------3-----------------2--------------------2--------------------------------------
E|-----0-----------------------------------------------------0-----------------5--------8--------------

Stave 4:

E|--3-----5--3-----------------------------0--1--0-----5--0--------0--------------------------0--
B|--------------6--5--5--3-----5--5-----3-----------3--------3--1--1--------0--1--3--1--0-----1--
G|-----------------5--------5-----------2-----------------------------0-----2-----------------2--
D|-----------------------------------0-----------------------------------------------------------
A|-----------------3-----------------------------------0--------3--------2-----------------0-----
E|--------3-----------------3--------------------------------------------------------------------

Stave 5:

E|--------------0-----------------4--------3--3--2--3--3--3-----3--5--6--5-----5-----------5--5-----5--
B|-----------1-----------------3-----------3--3--3--3--3--3-----3-----------8-----6--5--------------6--
G|--------2-----------------4--------------------------2--------2-----------------------7--------------
D|-----2-----------------2-----------------------------0-----------------------------------------------
A|--3-----------------2--------------------0--------0--------0-----------------5-----------------5-----
E|--------------------------------------------------------------------------------------5--------------

Stave 6:

E|-----4--------1--1--0--1--1--1-----1--1--1--1-----0-----------1-----------2-----------4--------
B|-----6--------0--------0--0--0-----0-----------3-----1-----------3-----------0-----------3-----
G|--------------------------0--0-----0--------------------0-----------2-----------1-----------4--
D|--------------------------0--0--------------------------------0-----------------------2--------
A|--4--------------------2--2--2--------------------3-----------------------2--------------------
E|--------------3-----------3--3--3--------------------------------------------------------------

http://www.guitartabcreator.com
Guitar Tab Creator is intended to store guitar tab created through the tool. It currently does not support in-line text editing. Any text you place in here will be lost. If you need to comment on your tab, please use the "Tab Notes" section located below.