Sound will begin in 5 seconds

A Mixolydian Pentatonic

01234567891011121314151617181920212223
E
B
G
D
A
E
B
0 1 2 3 4 5 6 7 8 9 10 11 12 13 14 15 16 17 18 19 20 21 22 23
Song Science #1: How Pros Use 6 Chords to Write Hit Songs
(/) Slide Up  (\) Slide Down  (h) Hammer On  (p) Pull Off  (b) Bend (r) Release (v) Vibrato

Stave 1:

E|--------------------------------------5--9--
B|--------------------------------5--8--------
G|-----------------------6--7--8--------------
D|-----------------5--7-----------------------
A|--------5--6--7-----------------------------
E|--5--9--------------------------------------

Stave 2:

E|----------------------------------------------9--10--11--12--
B|---------------------------------------8--10-----------------
G|------------------------------7--8--9------------------------
D|-----------------------7--11---------------------------------
A|----------------7--10----------------------------------------
E|--9--10--11--7-----------------------------------------------

Stave 3:

E|-------------------------------------------------10--11--12--
B|-----------------------------------------10--14--------------
G|----------------------------------9--12----------------------
D|----------------------11--12--13-----------------------------
A|--------------10--12-----------------------------------------
E|--10--11--12-------------------------------------------------

Stave 4:

E|--------------------------------------------------12--15--
B|--------------------------------------14--15--16----------
G|------------------------------12--14----------------------
D|------------------12--13--14------------------------------
A|----------12--16------------------------------------------
E|--12--15--------------------------------------------------

Stave 5:

E|--------------------------------------------------15--17--
B|--------------------------------------15--16--17----------
G|------------------------------14--18----------------------
D|----------------------14--17------------------------------
A|----------16--17--18--------------------------------------
E|--15--17--------------------------------------------------

http://www.guitartabcreator.com
Guitar Tab Creator is intended to store guitar tab created through the tool. It currently does not support in-line text editing. Any text you place in here will be lost. If you need to comment on your tab, please use the "Tab Notes" section located below.