Sound will begin in 5 seconds

A Harmonic minor (Five Shapes)

01234567891011121314151617181920212223
E
B
G
D
A
E
B
0 1 2 3 4 5 6 7 8 9 10 11 12 13 14 15 16 17 18 19 20 21 22 23
Song Science #1: How Pros Use 6 Chords to Write Hit Songs
(/) Slide Up  (\) Slide Down  (h) Hammer On  (p) Pull Off  (b) Bend (r) Release (v) Vibrato

Stave 1:

E|---------------------------4-5-7-5-4---------------------------
B|-----------------------5-6-----------6-5-----------------------
G|-----------------4-5-7-------------------7-5-4-----------------
D|-------------6-7-------------------------------7-6-------------
A|-------5-7-8---------------------------------------8-7-5-------
E|-5-7-8---------------------------------------------------8-7-5-

Stave 2:

E|---------------------------------7-8-10-8-7---------------------------------
B|----------------------------9-10------------10-9----------------------------
G|---------------------7-9-10----------------------10-9-7---------------------
D|------------6-7-9-10------------------------------------10-9-7-6------------
A|--------7-8------------------------------------------------------8-7--------
E|-7-8-10--------------------------------------------------------------10-8-7-

Stave 3:

E|----------------------------------------10-12-13-12-10----------------------------------------
B|-----------------------------9-10-12-13----------------13-12-10-9-----------------------------
G|------------------------9-10--------------------------------------10-9------------------------
D|----------------9-10-12------------------------------------------------12-10-9----------------
A|----------11-12----------------------------------------------------------------12-11----------
E|-10-12-13----------------------------------------------------------------------------13-12-10-

Stave 4:

E|-------------------------------------------12-13-12-------------------------------------------
B|----------------------------------12-13-15----------15-13-12----------------------------------
G|----------------------------13-14----------------------------14-13----------------------------
D|-------------------12-14-15----------------------------------------15-14-12-------------------
A|-------11-12-14-15----------------------------------------------------------15-14-12-11-------
E|-12-13----------------------------------------------------------------------------------13-12-

Stave 5:

E|-----------------------------4-5-4-----------------------------
B|-----------------------3-5-6-------6-5-3-----------------------
G|-----------------2-4-5-------------------5-4-2-----------------
D|-----------2-3-6-------------------------------6-3-2-----------
A|-----2-3-5-------------------------------------------5-3-2-----
E|-4-5-------------------------------------------------------5-4-

http://www.guitartabcreator.com
Guitar Tab Creator is intended to store guitar tab created through the tool. It currently does not support in-line text editing. Any text you place in here will be lost. If you need to comment on your tab, please use the "Tab Notes" section located below.