Sound will begin in 5 seconds

Melody A

01234567891011121314151617181920212223
E
B
G
D
A
E
B
0 1 2 3 4 5 6 7 8 9 10 11 12 13 14 15 16 17 18 19 20 21 22 23
Song Science #1: How Pros Use 6 Chords to Write Hit Songs
(/) Slide Up  (\) Slide Down  (h) Hammer On  (p) Pull Off  (b) Bend (r) Release (v) Vibrato

Stave 1:

E|--7p5p0--5p3-------7p5p0--5p3--10b10--7p5p0--5p3-------7p5p0--5p3--10b10--12p10p8b8--------
B|--------------3b3---------------------------------3b3--------------------------------------
G|-------------------------------------------------------------------------------------------
D|-------------------------------------------------------------------------------------------
A|-------------------------------------------------------------------------------------------
E|-------------------------------------------------------------------------------------------

Stave 2:

E|-----------8p6p5b5--5p3--1b1--1p0-------2--0--2--3--3--3--3--
B|-----------------------------------3b3--3-----------0--0--0--
G|----------------------------------------2-----------0--0--0--
D|----------------------------------------0-----------0--0--2--
A|----------------------------------------x-----------2--2--x--
E|----------------------------------------x-----------3--3--3--

http://www.guitartabcreator.com
Guitar Tab Creator is intended to store guitar tab created through the tool. It currently does not support in-line text editing. Any text you place in here will be lost. If you need to comment on your tab, please use the "Tab Notes" section located below.