Sound will begin in 5 seconds

Blue Moon

01234567891011121314151617181920212223
E
B
G
D
A
E
B
0 1 2 3 4 5 6 7 8 9 10 11 12 13 14 15 16 17 18 19 20 21 22 23
Song Science #1: How Pros Use 6 Chords to Write Hit Songs
(/) Slide Up  (\) Slide Down  (h) Hammer On  (p) Pull Off  (b) Bend (r) Release (v) Vibrato

Stave 1:

F|------------------------------------------------------------------------------------
C|-----------0--------0-----------0------------------2--------2-----------1--------1--
F|--------0-----0-----------0--------5\4p0--------0-----0--------------0-----0--------
C|-----0-----------0-----------0---------------2-----------2--------1-----------1-----
A|------------------------------------------1--------------------1--------------------
F|--0--------------------0------------------------------------------------------------

Stave 2:

F|-----------------------------------12-----------------------------------12------
C|-----------0-----------0-----------12-----------0--------0-----------0------12--
F|--------0-----------0-----------0--12--------0-----0--------------0-------------
C|-----0-----------0-----------0-----12-----0-----------0--------0----------------
A|-----------------------------------12-------------------------------------------
F|--3-----------2-----------0--------12--0--------------------0-------------------

Stave 3:

F|--------------------------------12--7--5----------------------12--5--5--16--
C|-----------0--------0-----------12--7--5----------------------12--5--5--16--
F|--------0--------0-----------0--12--7--5-----------------7p0--12--5--5--16--
C|-----0--------0-----------0-----12--7--5------------7p0-------12--5--5--16--
A|--1--------------------1--------12--7--5--5--7/8p5------------12--5--5--16--
F|--------------------------------12--7--5--5-------------------12--5--5--16--

Stave 4:

F|--
C|--
F|--
C|--
A|--
F|--

http://www.guitartabcreator.com
Guitar Tab Creator is intended to store guitar tab created through the tool. It currently does not support in-line text editing. Any text you place in here will be lost. If you need to comment on your tab, please use the "Tab Notes" section located below.