Sound will begin in 5 seconds

Fourteen Story Building

01234567891011121314151617181920212223
E
B
G
D
A
E
B
0 1 2 3 4 5 6 7 8 9 10 11 12 13 14 15 16 17 18 19 20 21 22 23
Song Science #1: How Pros Use 6 Chords to Write Hit Songs
(/) Slide Up  (\) Slide Down  (h) Hammer On  (p) Pull Off  (b) Bend (r) Release (v) Vibrato

Stave 1:

E|--3--3--3--3--3--3--3--3--3--3--3--3--
B|--4--4--4--4--4--4--4--4--4--4--4--4--
G|--5--5--5--5--4--4--4--4--3--3--3--3--
D|--5--5--5--5--5--5--5--5--5--5--5--5--
A|--3--3--3--3--3--3--3--3--3--3--3--3--
E|--------------------------------------

Stave 2:

E|--4--4--4--1--1--1--6--6--6--3--3--3--8---
B|--4--4--4--1--1--1--6--6--6--3--3--3--8---
G|--5--5--5--2--2--2--7--7--7--4--4--4--9---
D|--4--4--4--1--1--1--6--6--6--3--3--3--8---
A|--6--6--6--3--3--3--8--8--8--5--5--5--10--
E|--4--4--4--1--1--1--6--6--6--3--3--3--8---

Stave 3:

E|--8---8---8---x--x--7--7--7--x--x--8---8---8---x--x--7--7--7--x--x--8---8---8---x--x--7--7--7--------5--
B|--10--10--10--x--x--9--9--9--x--x--10--10--10--x--x--9--9--9--x--x--10--10--10--x--x--9--9--9--------7--
G|--10--10--10--x--x--9--9--9--x--x--10--10--10--x--x--9--9--9--x--x--10--10--10--x--x--9--9--9--------7--
D|--10--10--10--x--x--9--9--9--x--x--10--10--10--x--x--9--9--9--x--x--10--10--10--x--x--9--9--9--------7--
A|--8---8---8---x--x--7--7--7--x--x--8---8---8---x--x--7--7--7--x--x--8---8---8---x--x--7--7--7-----------
E|--------------x--x-----------x--x--------------x--x-----------x--x--------------x--x-----------------5--

Stave 4:

E|--5--5--5--5---------------------------------3--
B|--7--7--7--7---------------------------------4--
G|--7--7--7--7---------------------------------5--
D|--7--7--7--7-------5-------5--7--5-----------5--
A|--5--5--5--5--5h7-----5h7-----------8--7--5--3--
E|------------------------------------------------

http://www.guitartabcreator.com
Guitar Tab Creator is intended to store guitar tab created through the tool. It currently does not support in-line text editing. Any text you place in here will be lost. If you need to comment on your tab, please use the "Tab Notes" section located below.