Sound will begin in 5 seconds

Rush of the Wind

01234567891011121314151617181920212223
E
B
G
D
A
E
B
0 1 2 3 4 5 6 7 8 9 10 11 12 13 14 15 16 17 18 19 20 21 22 23
Song Science #1: How Pros Use 6 Chords to Write Hit Songs
(/) Slide Up  (\) Slide Down  (h) Hammer On  (p) Pull Off  (b) Bend (r) Release (v) Vibrato

Stave 1:

E|------------------------------------------------------------------------------------------------
B|------------------------------------------------------------------------------------------------
G|------------------------------------------------------------------------------------------------
D|--6------------------------------------------------------6---------------------------------------
A|--4-----4--5--7v--/1--7-----2--3--4v--/2--4--6--6--------4-----4--5--7v--/2--7-----2--3--4v--/2--
E|----0----------------5--2----------------2--4--4--0--0-----0----------------5--2----------------

Stave 2:

E|-----------------------------------------------------------------------------------------------------
B|-------------------------------------10h12--10--9h10v---------------------10--12--9v-----------------
G|-------------------8--9--11--13------------------------8--9p11-----8--11--------------9--8-----------
D|----------11v--/2----------------11-----------------------------9---------------------------11v--/2--
A|--4--6--6---------------------------------------------------------------------------------------------
E|--2--4--4---------------------------------------------------------------------------------------------

Stave 3:

E|---------------------------------------------9--11--12--14b14--11b11--------------9--11h12--9v--/2--
B|------------9--9h10-----------9h10--12v--/2---------------------------12---b12/2--------------------
G|--8--9--11-----------11v--11----------------------------------------------0-------------------------
D|--------------------------------------------------------------------------0-------------------------
A|--------------------------------------------------------------------------0-------------------------
E|----------------------------------------------------------------------------------------------------

Stave 4:

E|----11--12--14b14/2----------16b16--15--16--17b17-----------b9-------------
B|---------------------14--13------------------------16b16--12----10p9v--/2--
G|---------------------------------------------------------------------------
D|---------------------------------------------------------------------------
A|---------------------------------------------------------------------------
E|---------------------------------------------------------------------------

http://www.guitartabcreator.com
Guitar Tab Creator is intended to store guitar tab created through the tool. It currently does not support in-line text editing. Any text you place in here will be lost. If you need to comment on your tab, please use the "Tab Notes" section located below.