Sound will begin in 5 seconds

Smoke On The Water - Enver Izmailov tapping slyle

01234567891011121314151617181920212223
E
B
G
D
A
E
B
0 1 2 3 4 5 6 7 8 9 10 11 12 13 14 15 16 17 18 19 20 21 22 23
Song Science #1: How Pros Use 6 Chords to Write Hit Songs
(/) Slide Up  (\) Slide Down  (h) Hammer On  (p) Pull Off  (b) Bend (r) Release (v) Vibrato

Stave 1:

E|--------------------------------9p7-----------------7p5-----------------5p4--------
B|---------8p7--------7--------7-------------------5-------------------3-------------
G|-----11----------9--------9-------------7-----7-------------6-----4-------------4--
D|--9-----------8--------7-------------6-----5-------------4-----3-------------2-----
A|-----------------------------------------------------------------------------------
E|-----------------------------------------------------------------------------------

Stave 2:

E|--------------------------------9p7-----------------7--9p7p5--7--
B|---------8p7--------7--------7-------------------5---------------
G|-----11----------9--------9-------------7-----7------------------
D|--9-----------8--------7-------------6-----5---------------------
A|-----------------------------------------------------------------
E|-----------------------------------------------------------------

http://www.guitartabcreator.com
Guitar Tab Creator is intended to store guitar tab created through the tool. It currently does not support in-line text editing. Any text you place in here will be lost. If you need to comment on your tab, please use the "Tab Notes" section located below.