Category E

Chords

01234567891011121314151617181920212223
E
B
G
D
A
E
B
0 1 2 3 4 5 6 7 8 9 10 11 12 13 14 15 16 17 18 19 20 21 22 23
(/) Slide Up  (\) Slide Down  (h) Hammer On  (p) Pull Off  (b) Bend (r) Release (v) Vibrato

E|-------------------------------------------------------------------------------------|-
B|-------------------------------------------------------------------------------------|-
G|-------------------------------------------------------------------------------------|-
D|-------------------------------------------------------------------------------------|-
A|---------5-3-0-----------5-3---------5-3-0-----------5-3-------5-3-0-----------5-3-0-|-
E|-0-0-3-5-------3-0-0-3-5-----0-0-3-5-------3-0-0-3-5-----3-3-5-------3-0-3-3-5-------|-



E|-----------------------------------------------------------------------------3-3--0-0--|-
B|-----------------------------------------------------------------------------0-0--2-2--|-
G|-----------------------------------------------------------------------------0-0--2-2--|-
D|----------2--2-2--2-2--2-2--2-2----------2--2-2--2-2--2-2--2-2------------2--0-0--2-2--|-
A|-----5-3\-2--2-2--2-2--2-2--2-2------5-3\2--2-2--2-2--2-2--2-2--------5-3-2--2-3--0-0--|-
E|-3-5------0--0-0--0-0--0-0--0-0--3-5-----0--0-0--0-0--0-0--0-0--0-3-5-----0--3-3-------|-



E|--
B|--
G|--
D|--
A|--
E|--
							http://www.guitartabcreator.com
[[],[],[],[],[],[]]

Member for

8 years
Submitted by HiverusCrow on Mon, 2012-11-12 19:54