Sound will begin in 5 seconds

REBA - PERSHING

01234567891011121314151617181920212223
E
B
G
D
A
E
B
0 1 2 3 4 5 6 7 8 9 10 11 12 13 14 15 16 17 18 19 20 21 22 23
(/) Slide Up  (\) Slide Down  (h) Hammer On  (p) Pull Off  (b) Bend (r) Release (v) Vibrato

Stave 1:

E|----------------------------------------------------11h13--11--------------------11-------------11------
B|--------8v-----11--8--------8----------------13----------------13---------11h13----------11h13----------
G|-----8----------------9h10-----8/10------10---------------------------12-------------12-------------12--
D|--8----------------------------------11-----------------------------------------------------------------
A|--------------------------------------------------------------------------------------------------------
E|--------------------------------------------------------------------------------------------------------

Stave 2:

E|------------11-------------11---------11------------------------------------
B|--11h13-------------11h13------11/13------11------------11----------11--13--
G|----------------12----------------------------10h11h12----------12----------
D|------------------------------------------------------------13--------------
A|----------------------------------------------------------------------------
E|----------------------------------------------------------------------------

Stave 3:

E|--11h13--11-----------------11--13--11-----11--13/15--15-----18----------18--17--15--------------
B|--------------------11--13---------------------------------------16------------------16------18--
G|----------------12---------------------------------------------------15------------------15------
D|-------------------------------------------------------------------------------------------------
A|-------------------------------------------------------------------------------------------------
E|-------------------------------------------------------------------------------------------------

Stave 4:

E|-------------------------------------------------------------------
B|--16--16--16--15--15--15-------------------------------------------
G|--------------------------17--17--17--15--15--15-------------------
D|--------------------------------------------------16h17------------
A|---------------------------------------------------------18--------
E|-------------------------------------------------------------------

Stave 5:

E|--------------------------------------------13v-----13h15--13------11/13--------------------------------
B|------11--13---------11---------11------11---------------------13---------16--12/13--16-----------------
G|--12----------11/12------12/14------12---------------------------------------------------15\14------12--
D|------------------------------------------------------------------------------------------------15------
A|--------------------------------------------------------------------------------------------------------
E|--------------------------------------------------------------------------------------------------------

Stave 6:

E|--------------------------------------------------------------------------------------------------------
B|---------------------11--10--------------11------8--------------9h12--12--12-----11p8v--v--v--10p8v--v--
G|--14-------------------------8---------------10-----8---------------------------------------------------
D|------15--13--------------------8--7-------------------8--7---------------------------------------------
A|--------------13----------------------------------------------------------------------------------------
E|--------------------------------------------------------------------------------------------------------

Stave 7:

E|------------------------------------------------------------------------------------------------
B|--------------------------------------------------------------8---------------------------------
G|------------8------------------8---------------8------10--10-----8---------------------8--------
D|--8--8--10-----8--8--8--8--10--------8--8--10-----10----------------8-----8--8--8--10-----8--8--
A|------------------------------------------------------------------------------------------------
E|------------------------------------------------------------------------------------------------

Stave 8:

E|--------------------------------------------------------------------------------------------------------
B|---------------------------------------8----------------------------------------------------------------
G|-----------8------------8------10--10-----8------------------8------------------8------------8--10--10--
D|--8--8h10-----8--8--10-----10----------------8-----8--8--10-----8--8--8--8--10-----8--8--10-------------
A|--------------------------------------------------------------------------------------------------------
E|--------------------------------------------------------------------------------------------------------

Stave 9:

E|---------------------------------------------------------------------------------------------
B|--8-------------------------------------------------------------8-----------10---------------
G|-----8------------------8------------------8-----8------10--10-----8----------------------8--
D|--------8-----8--8--10-----8--8--8--8--10-----------10----------------8---------8--8--10-----
A|---------------------------------------------------------------------------------------------
E|---------------------------------------------------------------------------------------------

Stave 10:

E|-----------------------------------------------------------------------------------------------------
B|----------------------------------------------8------------------------------------------------------
G|------------------8------------8------10--10-----8-------------------8---------------8------8--7--5--
D|--8--8--8--8--10-----8--8--10-----10----------------8-----10--8--10-----8--8--8--10-----10-----------
A|-----------------------------------------------------------------------------------------------------
E|-----------------------------------------------------------------------------------------------------

Stave 11:

E|------------------------------------------------------------------------------------------------------
B|-----------------------------------------------------------------------8--------------------8h10--10--
G|-----------------------7--8------------------8--------8--------10--10-----8-----------8h10------------
D|--8--7--5-----------8--------8--8--8--8--10-----8h10-----8h10----------------8--8h10------------------
A|-----------8--6---------------------------------------------------------------------------------------
E|------------------------------------------------------------------------------------------------------

Stave 12:

E|--------------------------------------------------------------------------------------------------
B|--8------10--10p8------8--------------------------------------------------------------------------
G|-----10------------10-----8h10--8\7-----7--10\8--5--7--5------------------------------------------
D|-------------------------------------8--------------------8--7-----5--------5-------------5h7--7--
A|----------------------------------------------------------------7-----6--6-----6--5/6-------------
E|--------------------------------------------------------------------------------------------------

Stave 13:

E|----------------------------------------------------------------------------------------------------
B|----------------------------------------------------------------------------------------------------
G|--5--8--7-----5-------------------------------------------------------------------------------------
D|-----------8-----------5-----------5-----------5-----8--8--7--4/5--5-----------------5--------5-----
A|-----------------6--------6--6--6-----6--6--------6----------------------6--6-----6-----6--6-----6--
E|----------------------------------------------------------------------6-----------------------------

Stave 14:

E|--------------------------------------------------------------------------------------------------------
B|----------------------------------------------------------------------------10------10--11--10--11--13--
G|--------------------------5-----5--7--5--7--8--7--8--10--8--10--12--10--12------12----------------------
D|--5--7--8--5--7--8--7--8-----8--------------------------------------------------------------------------
A|--------------------------------------------------------------------------------------------------------
E|--------------------------------------------------------------------------------------------------------

Stave 15:

E|----------10-----------11h13p11p11p11---------11------------------------------------------11------
B|--11--13--------------------------------------------------------11-------------13-------------13--
G|-----------------0/12------------------11/12------12-----11/12----------13b14------11/12----------
D|--------------------------------------------------------------------13----------------------------
A|--------------------------------------------------------------------------------------------------
E|--------------------------------------------------------------------------------------------------

Stave 16:

E|----------------------------------------------------------------------------------------
B|---------11--10--8-----8--11---------8--------------------------------------------------
G|--11h12-------------9------------10-----8--7--10--8------8------8------8------8v--v--v--
D|-----------------------------------------------------10-----10-----10-----10------------
A|----------------------------------------------------------------------------------------
E|----------------------------------------------------------------------------------------

Stave 17:

E|---------------------------------------------------------------------------------------------------
B|-----------------------8---------------11--10b11b11--8------8--------------------------------------
G|--10b11r10p8--10p8--------8--10-----8-------------------10-----8\7-----7--10--8------7-------------
D|--------------------8------------8----------------------------------8------------10-----8--10--10--
A|---------------------------------------------------------------------------------------------------
E|---------------------------------------------------------------------------------------------------

Stave 18:

E|--------------------------------------------------------------------
B|--------------------------------------------------------------------
G|--------------------------------------------------------------------
D|--8--7--7--8--5--5--7-----7--7--8-----5--5--7--------5--------------
A|-----------------------------------8-----------5--6-----8--6--------
E|--------------------------------------------------------------6--6--

Stave 19:

E|---------8---------------------------------------------------------------------------------8--11--10--
B|--10b11--------11-----10--10b11--8------8--11--7-------------8-----------8--11-----10b11v-------------
G|------------8------8----------------10------------10--8---------------8-------------------------------
D|---------------------------------------------------------10-----8h10------------8---------------------
A|------------------------------------------------------------------------------------------------------
E|------------------------------------------------------------------------------------------------------

Stave 20:

E|--8---------------------------------------------------------------------------------------------
B|--------11--10h11p10--8------8------------------------------------------------------------------
G|-------------------------10-----8--10b11r10--8------10------8--------------------------------8--
D|-----8------------------------------------------10------10-----10p8--------10------8--9--10-----
A|---------------------------------------------------------------------9h10------10---------------
E|------------------------------------------------------------------------------------------------

Stave 21:

E|--13--13--15v---------13h15--13------11------11h13--11h13--11-------------------------------------
B|------------------15---------------------12--------------------13--11---------11----------11--13--
G|---------------------------------12------------------------------------11/12----------12----------
D|----------------------------------------------------------------------------------13--------------
A|--------------------------------------------------------------------------------------------------
E|--------------------------------------------------------------------------------------------------

Stave 22:

E|-------------------------------------------------------------------------------------------------
B|--11h13p11------11--13------11h13/15h16p15-----13\11------11h13/15v-----13\11--13p11------11h13--
G|------------12----------12----------------------------12------------------------------12---------
D|-------------------------------------------------------------------------------------------------
A|-------------------------------------------------------------------------------------------------
E|-------------------------------------------------------------------------------------------------

Stave 23:

E|---------------------------------------------------------------------------------------------------
B|--13/15v-----13h15p13\11------11h13/15v-----13h15p13\11------11h13/15--13h15p13\11------11h13/15v--
G|--------------------------12-----------------------------12-------------------------12-------------
D|---------------------------------------------------------------------------------------------------
A|---------------------------------------------------------------------------------------------------
E|---------------------------------------------------------------------------------------------------

Stave 24:

E|------------------------------------------------------------------------------------------------------
B|--13h15--13\11------11h13/15v-----13h15p13\11------11h13/15--13h15p13\11------11h13/15--13h15--13\11--
G|----------------12-----------------------------12-------------------------12--------------------------
D|------------------------------------------------------------------------------------------------------
A|------------------------------------------------------------------------------------------------------
E|------------------------------------------------------------------------------------------------------

Stave 25:

E|--------------------11---------------------------------------------------------------------------------
B|------11h13/15v---------13\12------11h13/15v-----13h15p13\11------11h13/15--13h15p13\11------11h13/15--
G|--12---------------------------12-----------------------------12-------------------------12------------
D|-------------------------------------------------------------------------------------------------------
A|-------------------------------------------------------------------------------------------------------
E|-------------------------------------------------------------------------------------------------------

Stave 26:

E|----------------------------------------------------------------------11--13b15v-----
B|--13h15--13\11----------11h13/15v--12\11------11----------11--11--12-----------------
G|----------------12v-----------------------12------13--12-----------------------------
D|-------------------------------------------------------------------------------------
A|-------------------------------------------------------------------------------------
E|-------------------------------------------------------------------------------------

Stave 27:

E|--17v--------------------11----------------------------------------------------------------------------
B|----------17\0-------------------13------11h13p11v---------11--13---------11\10------10--13------------
G|-------------------4/10------12------12----------------12----------11h12---------11----------12b13r12--
D|-------------------------------------------------------------------------------------------------------
A|-------------------------------------------------------------------------------------------------------
E|-------------------------------------------------------------------------------------------------------

Stave 28:

E|-----------------------------------------------13v-----\12-----------------13v--------------------13v--
B|----------------------------13---------11--------------------------11---------------------11-----------
G|--10------10--------10----------10/12------12---------------11/12------12----------10/12------12-------
D|------12------10\9------10-----------------------------------------------------------------------------
A|-------------------------------------------------------------------------------------------------------
E|-------------------------------------------------------------------------------------------------------

Stave 29:

E|-------------13v-----11-------------------------------13--13--11------13/15--13-----13--13--15--15/17--
B|------11h13------------------11h13/15--13\11------11-----------------------------14\-------------------
G|--12---------------------12-------------------12------------------12-----------------------------------
D|-------------------------------------------------------------------------------------------------------
A|-------------------------------------------------------------------------------------------------------
E|-------------------------------------------------------------------------------------------------------

Stave 30:

E|------17--17b18r17p15------15--17b18v-----b18-----b18-----b18-----b18b18-----b18r17--17--18--17b18r17--
B|--16---------------------------------------------------------------------------------------------------
G|-----------------------17------------------------------------------------------------------------------
D|-------------------------------------------------------------------------------------------------------
A|-------------------------------------------------------------------------------------------------------
E|-------------------------------------------------------------------------------------------------------

Stave 31:

E|--17b18v-----b18--17--15h17p15------15----------------------15-----------------------------------------
B|--------------------------------16------16--------------16------18b19r18--18b20v-----16------------16--
G|--------------------------------------------15-------------------------------------------15\14/15------
D|------------------------------------------------15-----------------------------------------------------
A|----------------------------------------------------18-------------------------------------------------
E|-------------------------------------------------------------------------------------------------------

Stave 32:

E|------17b18--18---------------------------------------------17b18r17--
B|----------------------------------------------------------------------
G|--16-------------15--15--15--15--15--15--15-----15--15--15------------
D|----------------------------------------------------------------------
A|----------------------------------------------------------------------
E|----------------------------------------------------------------------

http://www.guitartabcreator.com
Guitar Tab Creator is intended to store guitar tab created through the tool. It currently does not support in-line text editing. Any text you place in here will be lost. If you need to comment on your tab, please use the "Tab Notes" section located below.