Sound will begin in 5 seconds

Reba 6 13 94 Crazy Lick

01234567891011121314151617181920212223
E
B
G
D
A
E
B
0 1 2 3 4 5 6 7 8 9 10 11 12 13 14 15 16 17 18 19 20 21 22 23
(/) Slide Up  (\) Slide Down  (h) Hammer On  (p) Pull Off  (b) Bend (r) Release (v) Vibrato

Stave 1:

E|-----------------------------------------------------------------------------------------------
B|--11--11---------11--11-----8--11--11--8--8--11--11--8--8--11--11--9--9--11--11--9-----11--11--
G|----------11-----------------------------------------------------------------------------------
D|-----------------------------------------------------------------------------------------------
A|-----------------------------------------------------------------------------------------------
E|-----------------------------------------------------------------------------------------------

Stave 2:

E|-----------------------------------------6-----5/6------------11--------11-----11---------11--11--
B|--10--10--11--11--10-----11--10--------------------------------------8----------------11----------
G|---------------------------------7h8h10-----7---------------------8----------------8--------------
D|----------------------9-----------------------------7v--v-----------------------------------------
A|--------------------------------------------------------------------------------------------------
E|--------------------------------------------------------------------------------------------------

Stave 3:

E|-----------------------------------------------------------------------------------7----------------
B|-------------------------------7--9--8--9------7--8h9--9--10--------10/11--10--11-----------13--14--
G|------------------8--9--7--10--------------10-------------------------------------------------------
D|--10--10--10--11------------------------------------------------------------------------------------
A|----------------------------------------------------------------------------------------------------
E|----------------------------------------------------------------------------------------------------

Stave 4:

E|-----------------------------------------------------11------11--12--13--13b15v--v--v--
B|-------------------------------------12--13--14--15------14----------------------------
G|------11--12--13--14--14/15--14--15----------------------------------------------------
D|--12-----------------------------------------------------------------------------------
A|---------------------------------------------------------------------------------------
E|---------------------------------------------------------------------------------------

Stave 5:

E|--13b15--13b15--11-----------------13------13-----------13------13--10--------------11------------------
B|----------------------------------------------------------------------------------------13--13------11--
G|--------------------12/14------14------14---------8/10------10----------10/9h10/12--------------12------
D|---------------------------15---------------------------------------------------------------------------
A|--------------------------------------------------------------------------------------------------------
E|--------------------------------------------------------------------------------------------------------

Stave 6:

E|------------------------------------------------------------------------------------------------------
B|--13--11\10------10--13------11--------------10----------------------v--------11-----8----------------
G|-------------11----------10------12--------------10--------------------------------------------8/10v--
D|-------------------------------------13--12----------10v--v-----\8--8------8------8-----8\7/8---------
A|------------------------------------------------------------------------------------------------------
E|------------------------------------------------------------------------------------------------------

Stave 7:

E|-------------------------------------------------------------------------------------------------
B|-----------------------------------10h11p10------10--------------11b12b12r11---------11--13--11--
G|--------------10h12---------10h12------------12--------------12------------------12--------------
D|------10--11---------10h11---------------------------12--13--------------------------------------
A|--12---------------------------------------------------------------------------------------------
E|-------------------------------------------------------------------------------------------------

Stave 8:

E|----------------------------------------
B|--11--13--12--11---------11-------------
G|------------------11h12------12--11\10--
D|----------------------------------------
A|----------------------------------------
E|----------------------------------------

Stave 9:

E|--13p10----------------------------------------------------------
B|---------10---------------------------------8h10p8--8--9h10------
G|-------------10----------------------8--10-----------------------
D|-----------------10\8---------8--10--------------------------10--
A|--------------------------10-------------------------------------
E|-----------------------------------------------------------------

http://www.guitartabcreator.com
Guitar Tab Creator is intended to store guitar tab created through the tool. It currently does not support in-line text editing. Any text you place in here will be lost. If you need to comment on your tab, please use the "Tab Notes" section located below.