Sound will begin in 5 seconds

Rafiq Tone Solo FBGW

01234567891011121314151617181920212223
E
B
G
D
A
E
B
0 1 2 3 4 5 6 7 8 9 10 11 12 13 14 15 16 17 18 19 20 21 22 23
(/) Slide Up  (\) Slide Down  (h) Hammer On  (p) Pull Off  (b) Bend (r) Release (v) Vibrato

Stave 1:

E|--7p4--7--7v-----6----------------------------------------------------------------------------------
B|--------------------7--4--7v--------4v----------------------------4---------------------------------
G|---------------------------------6---------4v--------4--6/8--8\6-----6--4---------------4-----------
D|--------------------------------------------------6------------------------6v-----4--6-----6--4-----
A|-------------------------------------------------------------------------------------------------6--
E|----------------------------------------------------------------------------------------------------

Stave 2:

E|----------------------------------------------------------------7h9-----0--------7h9--7v----------------
B|-------------------------------------7--9v--------9p7--------7----------------7--------------7-----7h9--
G|--------------------------------6h8------------8-------8--6----------------6--------------------6-------
D|--4h6v---------------------6h8--------------------------------------------------------------------------
A|-------------------4/6--7-------------------------------------------------------------------------------
E|-----------0--2h5---------------------------------------------------------------------------------------

Stave 3:

E|---------------------------------------7\6----------------------------------------------------------
B|--7--6------------6-----7p6---------7-------5/6-----7--6------------------------4--4\2v-------------
G|--------8--6h7h8-----8-------8p6h8---------------8-----------6h8----------4--6--------------4p3-----
D|----------------------------------------------------------8----------4h6-------------------------4--
A|----------------------------------------------------------------------------------------------------
E|----------------------------------------------------------------------------------------------------

Stave 4:

E|-------2h6--4v--v-----2h6--4-----2h6--4--2-----8/9--6h9p6--
B|--2h4------------------------------------------------------
G|-----------------------------------------------------------
D|-----------------------------------------------------------
A|-----------------------------------------------------------
E|-----------------------------------------------------------

Stave 5:

E|--------6h9------------------------------------------------------------------------------------------
B|-----7-------7p6-----9v-----7p6----------------6-----7p6---------------------------------------------
G|--8---------------8--------------6--6-----7h8-----8-------7p6--7--8--6-------------------------------
D|------------------------------------------------------------------------7--6------------------4h5h6--
A|------------------------------------------------------------------------------8-----6\4h5--7---------
E|---------------------------------------------------------------------------------9-------------------

Stave 6:

E|---------------------------7--9--11--9--7---------7--9-------9/11--------11-------------------7h9--
B|------------------------7------------------9p7h9--------7h9--------12p9------12v-----9-----9-------
G|--4--6v--p5p4--------8------------------------------------------------------------------8----------
D|---------------6-----------------------------------------------------------------------------------
A|---------------------------------------------------------------------------------------------------
E|---------------------------------------------------------------------------------------------------

Stave 7:

E|--7h9p7--11--9p7---------7--12/13--11--
B|------------------9p7h9----------------
G|---------------------------------------
D|---------------------------------------
A|---------------------------------------
E|---------------------------------------

Stave 8:

E|--11--14--16--14--11--11------11--11--11----------------------------------------------------------
B|--------------------------14--------------14p13p11------11-----11--11-----11------11--11------11--
G|----------------------------------------------------13------------------------13----------13------
D|--------------------------------------------------------------------------------------------------
A|--------------------------------------------------------------------------------------------------
E|--------------------------------------------------------------------------------------------------

Stave 9:

E|------------------------------------------------------------------------------------------------
B|-------------13--11--12/13--11------11---------11h12p11----------------11h12p11-------------11--
G|--13/15--15---------------------13---------13------------13h15-----15------------13--12h13------
D|------------------------------------------------------------------------------------------------
A|------------------------------------------------------------------------------------------------
E|------------------------------------------------------------------------------------------------

Stave 10:

E|------------------------------11-------------------------------------------------16/18--18--
B|----------11--12----------12------12----------14-----------------------------14-------------
G|------13--------------13--------------13----------15--------------13h15--15-----------------
D|--14--------------14----------------------14----------16--13--16----------------------------
A|--------------------------------------------------------------------------------------------
E|--------------------------------------------------------------------------------------------

Stave 11:

E|--18--14----------16v-----13---------------------------------------------------------------------------
B|----------16------------------14------16v------------------------13------14p13-------------------------
G|--------------15------------------13----------12--15--13--14/15------15---------15--13-----------------
D|----------------------------------------------------------------------------------------15--13--14h15--
A|-------------------------------------------------------------------------------------------------------
E|-------------------------------------------------------------------------------------------------------

Stave 12:

E|-----------------
B|-----------------
G|--15--13--13/11--
D|-----------------
A|-----------------
E|-----------------

http://www.guitartabcreator.com
Guitar Tab Creator is intended to store guitar tab created through the tool. It currently does not support in-line text editing. Any text you place in here will be lost. If you need to comment on your tab, please use the "Tab Notes" section located below.