Limb JAp 99

Chords

01234567891011121314151617181920212223
E
B
G
D
A
E
B
0 1 2 3 4 5 6 7 8 9 10 11 12 13 14 15 16 17 18 19 20 21 22 23
(/) Slide Up  (\) Slide Down  (h) Hammer On  (p) Pull Off  (b) Bend (r) Release (v) Vibrato

Stave 1:

E|-------------------------------------------------------------------------10-------------------------------------------------------------------
B|------------------------------------------------------10v-----13b15v---------13p10---------10h13--11p10---------10----------------------------
G|--12------10--12------10--12------10--12------10--12--------------------------------12/13----------------12b14------12p10------------10-------
D|------13----------13----------13----------13-------------------------------------------------------------------------------12\11/12------10v--
A|----------------------------------------------------------------------------------------------------------------------------------------------
E|----------------------------------------------------------------------------------------------------------------------------------------------

Stave 2:

E|-----------------------------------------------------------------------------------------------------------------------------------------------
B|-----------------------------------------10--10-----10/11v-----10h11p10------10-------------------------------------8-----8---------8--10--11--
G|---------------------10--12------10--12----------------------------------12------10-----------------------7--8--10-----8-----8--10-------------
D|---------10--12--13----------13------------------------------------------------------10v-----\7-----9/10---------------------------------------
A|--12h13----------------------------------------------------------------------------------------------------------------------------------------
E|-----------------------------------------------------------------------------------------------------------------------------------------------

Stave 3:

E|----------------------------------15/17v-----17h18--17--15--18--17--15-----17h18--17--15--13-----15h16h17--13---------13------------------------
B|--8--10h11--11/13--13/15v-----13----------------------------------------------------------------------------------15---------13--15---------13--
G|-------------------------------------------------------------------------------------------------------------------------------------13h14------
D|------------------------------------------------------------------------------------------------------------------------------------------------
A|------------------------------------------------------------------------------------------------------------------------------------------------
E|------------------------------------------------------------------------------------------------------------------------------------------------

Stave 4:

E|------------------------------------------------------------------------------------------------------------------------------------
B|------13--15------13-------------------------13-----------------------------------------------------------------------------10--11--
G|--14----------14------13\12--15--14------14------15\14--12--14----------------------------------10--12--------------10--12----------
D|-------------------------------------16---------------------------------------------10--12--13----------13--12--13------------------
A|----------------------------------------------------------------15\14/15-----10/11--------------------------------------------------
E|------------------------------------------------------------------------------------------------------------------------------------

Stave 5:

E|----------------------9/10------------------10------------------------------------------------------------------------------------
B|--10--10--11--13--10--------13v-----10--13------13--12\11---------11--13--11--10--------------------------------------------------
G|--------------------------------------------------------------12------------------10----------------------------------------------
D|--------------------------------------------------------------------------------------10v---------10--12--12--13--13--12--12--10--
A|----------------------------------------------------------------------------------------------12----------------------------------
E|----------------------------------------------------------------------------------------------------------------------------------

Stave 6:

E|---------------------------------------------------------------------------------------------------------------------------------------------------
B|------------------10--11--13--13v-----13/14v-----13--11p10------10--13--11p10---------10--------------------------------------9/10---------11--11--
G|--------------10--------------------------------------------11-----------------11h12---------------10------12---------10--12--------12/13----------
D|------10--12------------------------------------------------------------------------------10\9/10------10------10h11-------------------------------
A|--10-----------------------------------------------------------------------------------------------------------------------------------------------
E|---------------------------------------------------------------------------------------------------------------------------------------------------

Stave 7:

E|---------------------------------------------------------------------------------------------------------------------------------
B|--11h13--13------13/15--13------13v---------13--15--13---------------------13----------------------------------------------------
G|-------------12-------------14----------14--------------15v------------15------15--14v---------14--15------14--------------------
D|----------------------------------------------------------------16/17----------------------17----------17------15----------------
A|-------------------------------------------------------------------------------------------------------------------15--15\14/15--
E|---------------------------------------------------------------------------------------------------------------------------------

Stave 8:

E|--------------------------------------------------------------------------------------------------------------------------------------------
B|--------------------------------------------------------------------------------------------11------13---------------------13------15--13v--
G|---------------------10--12-------------10-----------10------12------10------12/14--14----------------------14------------------------------
D|---------10--12--13----------13--12h13------10\9/10------10------10------10-------------15------15------15------15--14/15------15-----------
A|--11/12-------------------------------------------------------------------------------------------------------------------------------------
E|--------------------------------------------------------------------------------------------------------------------------------------------

Stave 9:

E|-----------------------------------------------------------------------18------14/15--15--15--16--16--16/17--17v-----18--18--20v-----
B|-----------------------------13---------------------13------13/14--15----------------------------------------------------------------
G|---------13--14--15--14--15------15p14--14--15--16------16---------------------------------------------------------------------------
D|--14/15--------------------------------------------------------------------14--------------------------------------------------------
A|-------------------------------------------------------------------------------------------------------------------------------------
E|-------------------------------------------------------------------------------------------------------------------------------------

Stave 10:

E|--17-------------17---------------------17--17h18p17------------------------------------------------------------------------------------------
B|------20--18---------20--18--17\16v-------------------18----------18----------18----------18----------18----------18----------18----------18--
G|----------------------------------------------------------17--20------17--20------17--20------17--20------17--20------17--20------17--20------
D|----------------------------------------------------------------------------------------------------------------------------------------------
A|----------------------------------------------------------------------------------------------------------------------------------------------
E|----------------------------------------------------------------------------------------------------------------------------------------------

Stave 11:

E|----------------------------------------------------------------------------------------------17v-----
B|----------18----------18----------18----------18----------18----------18----------18------------------
G|--17--19------17--20------17--20------17--20------17--20------17--20------17--20------17--20----------
D|------------------------------------------------------------------------------------------------------
A|------------------------------------------------------------------------------------------------------
E|------------------------------------------------------------------------------------------------------

Stave 12:

E|--20--20--20--20v--v--v-----18--18--18--18v--v--v--v-----17h18--17------17----------------16/17----------------------17-----------------------------
B|--------------------------------------------------------------------20------20b22v---------------20--18------18--20------21\20--18------20------18--
G|---------------------------------------------------------------------------------------------------------19-------------------------19------19------
D|----------------------------------------------------------------------------------------------------------------------------------------------------
A|----------------------------------------------------------------------------------------------------------------------------------------------------
E|----------------------------------------------------------------------------------------------------------------------------------------------------

Stave 13:

E|--16/17--20-------------------------------------------------------------13----------------------------13-------------------------------------------
B|-------------20b22r20--18------16------15------13------13h15h16--15b16------16p13------13---------13------16p13---------13--16--15--13---------13--
G|---------------------------17------17------15------14------------------------------15------15b16-----------------15b16------------------13h14------
D|---------------------------------------------------------------------------------------------------------------------------------------------------
A|---------------------------------------------------------------------------------------------------------------------------------------------------
E|---------------------------------------------------------------------------------------------------------------------------------------------------

Stave 14:

E|------------------------------------------------------13-------------------------------------------------------------------------------------------
B|--13\11-------------10-------------13------15b16v---------16p13------13h16--16--16--16--16--16--16--16v-----16--15--13---------13------------------
G|---------14--13h14------12b14v---------14------------------------15-----------------------------------------------------14h15------15--13--14------
D|-----------------------------------------------------------------------------------------------------------------------------------------------15--
A|---------------------------------------------------------------------------------------------------------------------------------------------------
E|---------------------------------------------------------------------------------------------------------------------------------------------------

							http://www.guitartabcreator.com
Instruments
{"strings":[[[".",".",".",".",".",".",".",".",".",".",".",".",".",".",".","_",".",".",".",".","_",10,".",".",".",".",".",".",".",".",".",".",".",".",".",".",".",".",".",".",".",".",".",".",".",".",".",".","."],[".",".",".",".",".",".",".",".",".",".",".",".",".",10,"v","_",13,"b",15,"v","_",".",13,"p",10,".",".",".",10,"h",13,11,"p",10,".",".",".",10,".",".",".",".",".",".",".",".",".",".","."],[12,".",10,12,".",10,12,".",10,12,".",10,12,".",".","_",".",".",".",".","_",".",".",".",".",12,"/",13,".",".",".",".",".",".",12,"b",14,".",12,"p",10,".",".",".",".",".",10,".","."],[".",13,".",".",13,".",".",13,".",".",13,".",".",".",".","_",".",".",".",".","_",".",".",".",".",".",".",".",".",".",".",".",".",".",".",".",".",".",".",".",".",12,"\\",11,"/",12,".",10,"v"],[".",".",".",".",".",".",".",".",".",".",".",".",".",".",".","_",".",".",".",".","_",".",".",".",".",".",".",".",".",".",".",".",".",".",".",".",".",".",".",".",".",".",".",".",".",".",".",".","."],[".",".",".",".",".",".",".",".",".",".",".",".",".",".",".","_",".",".",".",".","_",".",".",".",".",".",".",".",".",".",".",".",".",".",".",".",".",".",".",".",".",".",".",".",".",".",".",".","."]],[[".",".",".",".",".",".",".",".",".",".",".",".",".","_",".",".",".",".","_",".",".",".",".",".",".",".",".",".",".","_",".",".","_",".",".",".",".",".",".",".",".",".",".",".",".",".","."],[".",".",".",".",".",".",".",".",".",".",".",10,10,"_",10,"/",11,"v","_",10,"h",11,"p",10,".",10,".",".",".","_",".",".","_",".",".",".",".",".",".",8,".",8,".",".",8,10,11],[".",".",".",".",".",".",10,12,".",10,12,".",".","_",".",".",".",".","_",".",".",".",".",".",12,".",10,".",".","_",".",".","_",".",".",".",7,8,10,".",8,".",8,10,".",".","."],[".",".",".",10,12,13,".",".",13,".",".",".",".","_",".",".",".",".","_",".",".",".",".",".",".",".",".",10,"v","_","\\",7,"_",9,"/",10,".",".",".",".",".",".",".",".",".",".","."],[12,"h",13,".",".",".",".",".",".",".",".",".",".","_",".",".",".",".","_",".",".",".",".",".",".",".",".",".",".","_",".",".","_",".",".",".",".",".",".",".",".",".",".",".",".",".","."],[".",".",".",".",".",".",".",".",".",".",".",".",".","_",".",".",".",".","_",".",".",".",".",".",".",".",".",".",".","_",".",".","_",".",".",".",".",".",".",".",".",".",".",".",".",".","."]],[[".",".",".",".",".",".",".",".",".",".",".","_",".",15,"/",17,"v","_",17,"h",18,17,15,18,17,15,"_",17,"h",18,17,15,13,"_",15,"h",16,"h",17,13,"_",".",13,"_",".",".",".",".",".","."],[8,10,"h",11,11,"/",13,13,"/",15,"v","_",13,".",".",".",".","_",".",".",".",".",".",".",".",".","_",".",".",".",".",".",".","_",".",".",".",".",".",".","_",15,".","_",13,15,".",".",".",13],[".",".",".",".",".",".",".",".",".",".",".","_",".",".",".",".",".","_",".",".",".",".",".",".",".",".","_",".",".",".",".",".",".","_",".",".",".",".",".",".","_",".",".","_",".",".",13,"h",14,"."],[".",".",".",".",".",".",".",".",".",".",".","_",".",".",".",".",".","_",".",".",".",".",".",".",".",".","_",".",".",".",".",".",".","_",".",".",".",".",".",".","_",".",".","_",".",".",".",".",".","."],[".",".",".",".",".",".",".",".",".",".",".","_",".",".",".",".",".","_",".",".",".",".",".",".",".",".","_",".",".",".",".",".",".","_",".",".",".",".",".",".","_",".",".","_",".",".",".",".",".","."],[".",".",".",".",".",".",".",".",".",".",".","_",".",".",".",".",".","_",".",".",".",".",".",".",".",".","_",".",".",".",".",".",".","_",".",".",".",".",".",".","_",".",".","_",".",".",".",".",".","."]],[[".",".",".",".",".",".",".",".",".",".",".",".",".",".",".",".",".",".",".",".",".",".",".","_",".",".",".",".",".",".",".",".",".",".",".",".",".",".","."],[".",13,15,".",13,".",".",".",".",".",".",".",13,".",".",".",".",".",".",".",".",".",".","_",".",".",".",".",".",".",".",".",".",".",".",".",".",10,11],[14,".",".",14,".",13,"\\",12,15,14,".",14,".",15,"\\",14,12,14,".",".",".",".",".","_",".",".",".",".",".",".",10,12,".",".",".",10,12,".","."],[".",".",".",".",".",".",".",".",".",".",16,".",".",".",".",".",".",".",".",".",".",".",".","_",".",".",".",10,12,13,".",".",13,12,13,".",".",".","."],[".",".",".",".",".",".",".",".",".",".",".",".",".",".",".",".",".",".",15,"\\",14,"/",15,"_",10,"/",11,".",".",".",".",".",".",".",".",".",".",".","."],[".",".",".",".",".",".",".",".",".",".",".",".",".",".",".",".",".",".",".",".",".",".",".","_",".",".",".",".",".",".",".",".",".",".",".",".",".",".","."]],[[".",".",".",".",".",9,"/",10,".",".","_",".",".",10,".",".",".",".","_",".",".",".",".",".",".",".",".","_",".",".",".",".",".",".",".",".","."],[10,10,11,13,10,".",".",".",13,"v","_",10,13,".",13,12,"\\",11,"_",".",11,13,11,10,".",".",".","_",".",".",".",".",".",".",".",".","."],[".",".",".",".",".",".",".",".",".",".","_",".",".",".",".",".",".",".","_",12,".",".",".",".",10,".",".","_",".",".",".",".",".",".",".",".","."],[".",".",".",".",".",".",".",".",".",".","_",".",".",".",".",".",".",".","_",".",".",".",".",".",".",10,"v","_",".",10,12,12,13,13,12,12,10],[".",".",".",".",".",".",".",".",".",".","_",".",".",".",".",".",".",".","_",".",".",".",".",".",".",".",".","_",12,".",".",".",".",".",".",".","."],[".",".",".",".",".",".",".",".",".",".","_",".",".",".",".",".",".",".","_",".",".",".",".",".",".",".",".","_",".",".",".",".",".",".",".",".","."]],[[".",".",".",".",".",".",".",".",".","_",".",".",".",".","_",".",".",".",".",".",".",".",".",".",".",".",".",".",".",".",".",".",".",".",".",".",".",".",".",".",".",".",".",".",".",".",".",".",".","."],[".",".",".",".",10,11,13,13,"v","_",13,"/",14,"v","_",13,11,"p",10,".",10,13,11,"p",10,".",".",".",10,".",".",".",".",".",".",".",".",".",".",".",".",".",9,"/",10,".",".",".",11,11],[".",".",".",10,".",".",".",".",".","_",".",".",".",".","_",".",".",".",".",11,".",".",".",".",".",11,"h",12,".",".",".",".",".",".",10,".",12,".",".",".",10,12,".",".",".",12,"/",13,".","."],[".",10,12,".",".",".",".",".",".","_",".",".",".",".","_",".",".",".",".",".",".",".",".",".",".",".",".",".",".",10,"\\",9,"/",10,".",10,".",10,"h",11,".",".",".",".",".",".",".",".",".","."],[10,".",".",".",".",".",".",".",".","_",".",".",".",".","_",".",".",".",".",".",".",".",".",".",".",".",".",".",".",".",".",".",".",".",".",".",".",".",".",".",".",".",".",".",".",".",".",".",".","."],[".",".",".",".",".",".",".",".",".","_",".",".",".",".","_",".",".",".",".",".",".",".",".",".",".",".",".",".",".",".",".",".",".",".",".",".",".",".",".",".",".",".",".",".",".",".",".",".",".","."]],[[".",".",".",".",".",".",".",".",".",".",".",".","_",".",".",".",".",".",".","_",".",".",".",".",".",".",".",".","_",".",".",".",".",".",".",".",".",".",".",".","."],[11,"h",13,13,".",13,"/",15,13,".",13,"v","_",".",13,15,13,".",".","_",".",".",".",".",13,".",".",".","_",".",".",".",".",".",".",".",".",".",".",".","."],[".",".",".",".",12,".",".",".",".",14,".",".","_",14,".",".",".",15,"v","_",".",".",".",15,".",15,14,"v","_",".",14,15,".",14,".",".",".",".",".",".","."],[".",".",".",".",".",".",".",".",".",".",".",".","_",".",".",".",".",".",".","_",16,"/",17,".",".",".",".",".","_",17,".",".",17,".",15,".",".",".",".",".","."],[".",".",".",".",".",".",".",".",".",".",".",".","_",".",".",".",".",".",".","_",".",".",".",".",".",".",".",".","_",".",".",".",".",".",".",15,15,"\\",14,"/",15],[".",".",".",".",".",".",".",".",".",".",".",".","_",".",".",".",".",".",".","_",".",".",".",".",".",".",".",".","_",".",".",".",".",".",".",".",".",".",".",".","."]],[[".",".",".",".",".",".",".",".",".",".",".",".",".",".",".",".",".",".",".",".",".",".",".",".",".",".",".",".",".",".",".",".",".",".",".",".",".",".",".",".",".",".","."],[".",".",".",".",".",".",".",".",".",".",".",".",".",".",".",".",".",".",".",".",".",".",".",".",".",".",".",".",".",11,".",13,".",".",".",".",".",".",13,".",15,13,"v"],[".",".",".",".",".",".",10,12,".",".",".",".",10,".",".",".",".",".",10,".",12,".",10,".",12,"/",14,14,".",".",".",".",".",14,".",".",".",".",".",".",".",".","."],[".",".",".",10,12,13,".",".",13,12,"h",13,".",10,"\\",9,"/",10,".",10,".",10,".",10,".",".",".",".",15,".",15,".",15,".",15,14,"/",15,".",15,".",".","."],[11,"/",12,".",".",".",".",".",".",".",".",".",".",".",".",".",".",".",".",".",".",".",".",".",".",".",".",".",".",".",".",".",".",".",".",".",".",".",".",".",".",".","."],[".",".",".",".",".",".",".",".",".",".",".",".",".",".",".",".",".",".",".",".",".",".",".",".",".",".",".",".",".",".",".",".",".",".",".",".",".",".",".",".",".",".","."]],[[".",".",".",".",".",".",".",".",".",".",".",".",".",".",".",".",".",".",".",".",".",18,".",14,"/",15,15,15,16,16,16,"/",17,17,"v","_",18,18,20,"v","_"],[".",".",".",".",".",".",".",".",13,".",".",".",".",".",".",13,".",13,"/",14,15,".",".",".",".",".",".",".",".",".",".",".",".",".",".","_",".",".",".",".","_"],[".",".",".",13,14,15,14,15,".",15,"p",14,14,15,16,".",16,".",".",".",".",".",".",".",".",".",".",".",".",".",".",".",".",".",".","_",".",".",".",".","_"],[14,"/",15,".",".",".",".",".",".",".",".",".",".",".",".",".",".",".",".",".",".",".",14,".",".",".",".",".",".",".",".",".",".",".",".","_",".",".",".",".","_"],[".",".",".",".",".",".",".",".",".",".",".",".",".",".",".",".",".",".",".",".",".",".",".",".",".",".",".",".",".",".",".",".",".",".",".","_",".",".",".",".","_"],[".",".",".",".",".",".",".",".",".",".",".",".",".",".",".",".",".",".",".",".",".",".",".",".",".",".",".",".",".",".",".",".",".",".",".","_",".",".",".",".","_"]],[[17,".",".","_",17,".",".",".",".",".",".","_",17,17,"h",18,"p",17,".",".",".",".",".",".",".",".",".",".",".",".",".",".",".",".",".",".",".",".",".","."],[".",20,18,"_",".",20,18,17,"\\",16,"v","_",".",".",".",".",".",".",18,".",".",18,".",".",18,".",".",18,".",".",18,".",".",18,".",".",18,".",".",18],[".",".",".","_",".",".",".",".",".",".",".","_",".",".",".",".",".",".",".",17,20,".",17,20,".",17,20,".",17,20,".",17,20,".",17,20,".",17,20,"."],[".",".",".","_",".",".",".",".",".",".",".","_",".",".",".",".",".",".",".",".",".",".",".",".",".",".",".",".",".",".",".",".",".",".",".",".",".",".",".","."],[".",".",".","_",".",".",".",".",".",".",".","_",".",".",".",".",".",".",".",".",".",".",".",".",".",".",".",".",".",".",".",".",".",".",".",".",".",".",".","."],[".",".",".","_",".",".",".",".",".",".",".","_",".",".",".",".",".",".",".",".",".",".",".",".",".",".",".",".",".",".",".",".",".",".",".",".",".",".",".","."]],[[".",".",".",".",".",".",".",".",".",".",".",".",".",".",".",".",".",".",".",".",".",".",".",17,"v","_"],[".",".",18,".",".",18,".",".",18,".",".",18,".",".",18,".",".",18,".",".",18,".",".",".",".","_"],[17,19,".",17,20,".",17,20,".",17,20,".",17,20,".",17,20,".",17,20,".",17,20,".",".","_"],[".",".",".",".",".",".",".",".",".",".",".",".",".",".",".",".",".",".",".",".",".",".",".",".",".","_"],[".",".",".",".",".",".",".",".",".",".",".",".",".",".",".",".",".",".",".",".",".",".",".",".",".","_"],[".",".",".",".",".",".",".",".",".",".",".",".",".",".",".",".",".",".",".",".",".",".",".",".",".","_"]],[[20,20,20,20,"v","v","v","_",18,18,18,18,"v","v","v","v","_",17,"h",18,17,".",17,".",".",".",".","_","_",16,"/",17,".",".",".",".",".",17,".",".",".",".",".",".",".","."],[".",".",".",".",".",".",".","_",".",".",".",".",".",".",".",".","_",".",".",".",".",20,".",20,"b",22,"v","_","_",".",".",".",20,18,".",18,20,".",21,"\\",20,18,".",20,".",18],[".",".",".",".",".",".",".","_",".",".",".",".",".",".",".",".","_",".",".",".",".",".",".",".",".",".",".","_","_",".",".",".",".",".",19,".",".",".",".",".",".",".",19,".",19,"."],[".",".",".",".",".",".",".","_",".",".",".",".",".",".",".",".","_",".",".",".",".",".",".",".",".",".",".","_","_",".",".",".",".",".",".",".",".",".",".",".",".",".",".",".",".","."],[".",".",".",".",".",".",".","_",".",".",".",".",".",".",".",".","_",".",".",".",".",".",".",".",".",".",".","_","_",".",".",".",".",".",".",".",".",".",".",".",".",".",".",".",".","."],[".",".",".",".",".",".",".","_",".",".",".",".",".",".",".",".","_",".",".",".",".",".",".",".",".",".",".","_","_",".",".",".",".",".",".",".",".",".",".",".",".",".",".",".",".","."]],[[16,"/",17,20,".",".",".",".",".",".",".",".",".",".",".",".",".",".",".",".",".",".",".",".",".",13,".",".",".",".",".",".",".",".",".",13,".",".",".",".",".",".",".",".",".",".",".",".",".","."],[".",".",".",".",20,"b",22,"r",20,18,".",16,".",15,".",13,".",13,"h",15,"h",16,15,"b",16,".",16,"p",13,".",13,".",".",".",13,".",16,"p",13,".",".",".",13,16,15,13,".",".",".",13],[".",".",".",".",".",".",".",".",".",".",17,".",17,".",15,".",14,".",".",".",".",".",".",".",".",".",".",".",".",15,".",15,"b",16,".",".",".",".",".",15,"b",16,".",".",".",".",13,"h",14,"."],[".",".",".",".",".",".",".",".",".",".",".",".",".",".",".",".",".",".",".",".",".",".",".",".",".",".",".",".",".",".",".",".",".",".",".",".",".",".",".",".",".",".",".",".",".",".",".",".",".","."],[".",".",".",".",".",".",".",".",".",".",".",".",".",".",".",".",".",".",".",".",".",".",".",".",".",".",".",".",".",".",".",".",".",".",".",".",".",".",".",".",".",".",".",".",".",".",".",".",".","."],[".",".",".",".",".",".",".",".",".",".",".",".",".",".",".",".",".",".",".",".",".",".",".",".",".",".",".",".",".",".",".",".",".",".",".",".",".",".",".",".",".",".",".",".",".",".",".",".",".","."]],[[".",".",".",".",".",".",".",".",".",".",".",".","_",".",".",".",".",".",".","_",13,".",".",".",".",".",".",".",".",".",".",".",".",".",".",".","_",".",".",".",".",".",".",".",".",".",".","."],[13,"\\",11,".",".",".",".",10,".",".",".",".","_",13,".",15,"b",16,"v","_",".",16,"p",13,".",13,"h",16,16,16,16,16,16,16,16,"v","_",16,15,13,".",".",".",13,".",".",".","."],[".",".",".",14,13,"h",14,".",12,"b",14,"v","_",".",14,".",".",".",".","_",".",".",".",".",15,".",".",".",".",".",".",".",".",".",".",".","_",".",".",".",14,"h",15,".",15,13,14,"."],[".",".",".",".",".",".",".",".",".",".",".",".","_",".",".",".",".",".",".","_",".",".",".",".",".",".",".",".",".",".",".",".",".",".",".",".","_",".",".",".",".",".",".",".",".",".",".",15],[".",".",".",".",".",".",".",".",".",".",".",".","_",".",".",".",".",".",".","_",".",".",".",".",".",".",".",".",".",".",".",".",".",".",".",".","_",".",".",".",".",".",".",".",".",".",".","."],[".",".",".",".",".",".",".",".",".",".",".",".","_",".",".",".",".",".",".","_",".",".",".",".",".",".",".",".",".",".",".",".",".",".",".",".","_",".",".",".",".",".",".",".",".",".",".","."]]],"numberofstrings":6,"notes":["E","B","G","D","A","E","B"],"capo":0,"stringnotes":["E4","B3","G3","D3","A2","E2"],"comments":["Stave 1:","Stave 2:","Stave 3:","Stave 4:","Stave 5:","Stave 6:","Stave 7:","Stave 8:","Stave 9:","Stave 10:","Stave 11:","Stave 12:","Stave 13:","Stave 14:"],"timing":[["W","W","W","W","W","W","W","W","W","W","W","W","W","W",null,null,"W",null,"W",null,null,"W","W",null,"W","W",null,"W","W","W","W","W",null,"W","W",null,"W","W","W",null,"W","W",null,"W",null,"W","W","W"],["W",null,"W","W","W","W","W","W","W","W","W","W","W",null,"W",null,"W",null,null,"W",null,"W",null,"W","W","W","W","W",null,"W",null,"W",null,"W",null,"W","W","W","W","W","W","W","W","W","W","W","W"],["W","W",null,"W","W",null,"W","W","W","W",null,null,"W","W",null,"W","W",null,"W",null,"W","W","W","W","W","W","W","W",null,"W","W","W","W",null,"W",null,"W",null,"W","W",null,"W","W",null,"W","W","W",null,"W","W"],["W","W","W","W","W","W",null,"W","W","W","W","W","W","W","W","W","W","W","W",null,"W",null,"W",null,"W",null,"W","W","W","W","W","W","W","W","W","W","W","W","W"],["W","W","W","W","W","W",null,"W","W",null,null,"W","W","W","W","W",null,"W",null,"W","W","W","W","W","W","W",null,null,"W","W","W","W","W","W","W","W","W"],["W","W","W","W","W","W","W","W",null,null,"W",null,"W",null,null,"W","W",null,"W","W","W","W","W",null,"W","W",null,"W","W","W",null,"W",null,"W","W","W","W","W",null,"W","W","W","W","W","W","W",null,"W","W","W"],["W",null,"W","W","W","W",null,"W","W","W","W",null,null,"W","W","W","W","W",null,null,"W",null,"W","W","W","W","W",null,null,"W","W","W","W","W","W","W","W",null,"W",null,"W"],["W",null,"W","W","W","W","W","W","W","W",null,"W","W","W",null,"W",null,"W","W","W","W","W","W","W","W",null,"W","W","W","W","W","W","W","W","W","W",null,"W","W","W","W","W"],["W",null,"W","W","W","W","W","W","W","W",null,"W","W","W","W","W","W","W","W","W","W","W","W","W",null,"W","W","W","W","W","W",null,"W","W",null,null,"W","W","W"],["W","W","W",null,"W","W","W","W",null,"W",null,null,"W","W",null,"W",null,"W","W","W","W","W","W","W","W","W","W","W","W","W","W","W","W","W","W","W","W","W","W","W"],["W","W","W","W","W","W","W","W","W","W","W","W","W","W","W","W","W","W","W","W","W","W","W","W"],["W","W","W","W",null,null,null,null,"W","W","W","W",null,null,null,null,null,"W",null,"W","W","W","W","W",null,"W",null,"W",null,"W",null,"W","W","W","W","W","W","W","W",null,"W","W","W","W","W","W"],["W",null,"W","W","W",null,"W","W","W","W","W","W","W","W","W","W","W","W","W","W","W","W","W",null,"W","W","W",null,"W","W","W","W",null,"W","W","W","W",null,"W","W",null,"W","W","W","W","W","W",null,"W","W","W"],["W","W","W","W","W",null,"W","W","W",null,"W",null,"W","W","W","W",null,"W",null,null,"W","W",null,"W","W","W",null,"W","W","W","W","W","W","W","W",null,null,"W","W","W","W",null,"W","W","W","W","W","W"]],"timingvisible":false,"tabcounter":48,"stave":13,"totalstaves":14,"instrument":"6guitar","selectedtuning":"6_standard","version":"13"}

Member for

3 years
Submitted by hhood87 on Tue, 2020-09-15 12:39