Sound will begin in 5 seconds

Löwenzahn

Chords
01234567891011121314151617181920212223
E
B
G
D
A
E
B
0 1 2 3 4 5 6 7 8 9 10 11 12 13 14 15 16 17 18 19 20 21 22 23
Song Science #1: How Pros Use 6 Chords to Write Hit Songs
(/) Slide Up  (\) Slide Down  (h) Hammer On  (p) Pull Off  (b) Bend (r) Release (v) Vibrato

Stave 1:

E|--8------------4--6--8---
B|--10-----------5--7--10--
G|--10-----------5--7--10--
D|-------------------------
A|-------------------------
E|-------------------------

Stave 2:

E|--8------------4--6--8--
B|--10-----------5--7--9--
G|--10-----------5--7--9--
D|------------------------
A|------------------------
E|------------------------

Stave 3:

E|--1--------1--|--3--
B|--3--------1--|--5--
G|--3--------2--|--5--
D|--------------|-----
A|--------------|-----
E|--------------|-----

Stave 4:

E|--------------------------------------------------
B|--------------------------------------------------
G|--------------------------------------------------
D|--3--3-----6--6--6-----10--10--10-----10--10--10--
A|--3--3-----6--6--6-----10--10--10-----10--10--10--
E|--1--1-----4--4--4-----8---8---8------8---8---8---

http://www.guitartabcreator.com
Guitar Tab Creator is intended to store guitar tab created through the tool. It currently does not support in-line text editing. Any text you place in here will be lost. If you need to comment on your tab, please use the "Tab Notes" section located below.