Sound will begin in 5 seconds

Alle müssen tanzen

Chords
01234567891011121314151617181920212223
E
B
G
D
A
E
B
0 1 2 3 4 5 6 7 8 9 10 11 12 13 14 15 16 17 18 19 20 21 22 23
Song Science #1: How Pros Use 6 Chords to Write Hit Songs
(/) Slide Up  (\) Slide Down  (h) Hammer On  (p) Pull Off  (b) Bend (r) Release (v) Vibrato

Stave 1:

E|--------------------|--
B|--------------------|--
G|--------------------|--
D|--------------------|--
A|--------------4--5--|--
E|--3-----6--3--------|--

Stave 2:

E|-----3-----3-----1-----1-----3--|--
B|-----3-----5-----3-----1-----3--|--
G|-----4-----5-----3-----2-----4--|--
D|--------------------------------|--
A|--------------------------------|--
E|--------------------------------|--

Stave 3:

E|--3--
B|--3--
G|--4--
D|-----
A|-----
E|-----

Stave 4:

E|-----8------------6-----5-----3-----1--------3-----1-----3--
B|-----10-----------8-----7-----5-----3--------5-----1-----3--
G|-----10-----------8-----7-----5-----3--------5-----2-----4--
D|-----10-----------8-----7-----5-----3--------5-----3-----5--
A|-----8------------6-----5-----3-----1--------3-----3-----5--
E|-----8------------6-----5-----3-----1--------3-----1-----3--

Stave 5:

E|--------------------3--
B|--3--------------6-----
G|-----5--3--------------
D|-----------5-----------
A|-----------------------
E|-----------------------

http://www.guitartabcreator.com
Guitar Tab Creator is intended to store guitar tab created through the tool. It currently does not support in-line text editing. Any text you place in here will be lost. If you need to comment on your tab, please use the "Tab Notes" section located below.