Sound will begin in 5 seconds

A Rose for My Revenge- Convulsion of the Queen's Double

01234567891011121314151617181920212223
E
B
G
D
A
E
B
0 1 2 3 4 5 6 7 8 9 10 11 12 13 14 15 16 17 18 19 20 21 22 23
Song Science #1: How Pros Use 6 Chords to Write Hit Songs
(/) Slide Up  (\) Slide Down  (h) Hammer On  (p) Pull Off  (b) Bend (r) Release (v) Vibrato

Stave 1:

E|-----------------------------
B|-----------------------------
G|-----------------------------
D|-----------------------------
A|-0-4-3-0-3-2-0-0h5h8-0-0-0---
E|-0-4-3-0-3-2-0-------0-0-0---

Stave 2:

E|----------------------------------------------------------------------
B|----------------------------------------------------------------------
G|----------------------------------------------------------------------
D|---------7-10---6-9-6---5---8---4---------7-10---6-9-6---12---11---10-
A|---6-9------------------------------6-9-------------------------------
E|-0-----0------0-------0---0---0---0-----0------0-------0----0----0----

Stave 3:

E|-------------------------------------------------------------
B|-------------------------------------------------------------
G|-------------------------------------------------------------
D|---------7-10---6-9-6---5---8---4---------7-10---6-9-6-------
A|---6-9------------------------------6-9----------------------
E|-0-----0------0-------0---0---0---0-----0------0-------0-0-0-

Stave 4:

E|----------------------------------------------------------------------
B|----------------------------------------------------------------------
G|----------------------------------------------------------------------
D|---------7-10---6-9-6---5---8---4---------7-10---6-9-6---12---11---10-
A|---6-9------------------------------6-9-------------------------------
E|-0-----0------0-------0---0---0---0-----0------0-------0----0----0----

Stave 5:

E|-----------------------------------------------------------------------
B|-----------------------------------------------------------------------
G|-----------------------------------------------------------------------
D|---6-----5--------------------------6-----5-------------7-10-----------
A|-----7-----6---7---10---8-----5-8-----7-----6---7---6-9----------------
E|-0-----0-----0---0----0---0-0-----0-----0-----0---0--------------------

http://www.guitartabcreator.com
Guitar Tab Creator is intended to store guitar tab created through the tool. It currently does not support in-line text editing. Any text you place in here will be lost. If you need to comment on your tab, please use the "Tab Notes" section located below.