Sound will begin in 5 seconds

Stealing Time

01234567891011121314151617181920212223
E
B
G
D
A
E
B
0 1 2 3 4 5 6 7 8 9 10 11 12 13 14 15 16 17 18 19 20 21 22 23
Song Science #1: How Pros Use 6 Chords to Write Hit Songs
(/) Slide Up  (\) Slide Down  (h) Hammer On  (p) Pull Off  (b) Bend (r) Release (v) Vibrato

Stave 1:

E|--0---------3----0h2--
B|--1h3--0h1--0h3--3----
G|--0----2----0----2----
D|-------2---------0----
A|--3---------3---------
E|----------------------

Stave 2:

E|-----------------------------------
B|--10/12--12h13p12--8/10--10--8-----
G|-----------------------------------
D|-----------------------------------
A|-----------------------------------
E|-----------------------------------

Stave 3:

E|--------------------------
B|------------------2/4--2--
G|--2h3p2--0--0--4----------
D|--------------------------
A|--------------------------
E|--------------------------

Stave 4:

E|--3--3--5--8------------------------
B|--3--3--5--8------------------------
G|--0--4--5--9------------------------
D|--2--5--7--10-----------------------
A|--3--5--7--10-----------------------
E|-----3--5--8------------------------

Stave 5:

E|---------------10------------
B|-----8--10b12------12b10--8--
G|--7--------------------------
D|-----------------------------
A|-----------------------------
E|-----------------------------

http://www.guitartabcreator.com
Guitar Tab Creator is intended to store guitar tab created through the tool. It currently does not support in-line text editing. Any text you place in here will be lost. If you need to comment on your tab, please use the "Tab Notes" section located below.