Sound will begin in 5 seconds

Thinking Out Loud Solo - Ed Sheeran (created by Harrison Lambert)

01234567891011121314151617181920212223
E
B
G
D
A
E
B
0 1 2 3 4 5 6 7 8 9 10 11 12 13 14 15 16 17 18 19 20 21 22 23
Song Science #1: How Pros Use 6 Chords to Write Hit Songs
(/) Slide Up  (\) Slide Down  (h) Hammer On  (p) Pull Off  (b) Bend (r) Release (v) Vibrato

Stave 1:

E|-----------------------------------------------|--------------------------------------|--
B|-----------------------------------------------|------------------------10------------|--
G|--------------7h9/11--9--7h9p7-----------------|----------------7h9/11------9\7--9h7--|--
D|---------7h9--------------------7h9--7h9--7----|-----------7h9------------------------|--
A|----7h9----------------------------------------|------7h9-----------------------------|--
E|-----------------------------------------------|--10----------------------------------|--

Stave 2:

E|------------------------14--------14------------|---------------------------------------------------|--
B|----10h12--10h12--10--------15------------------|--10h12--10h12--10h12--10--12------------------10--|--
G|------------------------------------------------|-------------------------------9h11p9\7--9/11------|--
D|------------------------------------------------|---------------------------------------------------|--
A|------------------------------------------------|---------------------------------------------------|--
E|------------------------------------------------|---------------------------------------------------|--

Stave 3:

E|----------------------------------------------------------|--
B|----12--12--12----10--10--10----8--8--8----7--7--7--5-----|--
G|-------------------------------------------------------7--|--
D|----------------------------------------------------------|--
A|----------------------------------------------------------|--
E|----------------------------------------------------------|--

http://www.guitartabcreator.com
Guitar Tab Creator is intended to store guitar tab created through the tool. It currently does not support in-line text editing. Any text you place in here will be lost. If you need to comment on your tab, please use the "Tab Notes" section located below.