Sound will begin in 5 seconds

Undertow

01234567891011121314151617181920212223
E
B
G
D
A
E
B
0 1 2 3 4 5 6 7 8 9 10 11 12 13 14 15 16 17 18 19 20 21 22 23
Song Science #1: How Pros Use 6 Chords to Write Hit Songs
(/) Slide Up  (\) Slide Down  (h) Hammer On  (p) Pull Off  (b) Bend (r) Release (v) Vibrato

Stave 1:

E|----------------------------------------------------------------------------------------------------------------
B|--6/9----6----9b--6h9p6/4v--/11--11--14b--11------11v--11--11h13p11--9--6--9--11--------------------------------
G|----------------------------------------------13----------------------------------6--8--10--10--11-----6--------
D|----------------------------------------------------------------------------------------------------8-----------
A|----------------------------------------------------------------------------------------------------------------
E|----------------------------------------------------------------------------------------------------------------

Stave 2:

E|--
B|--
G|--
D|--
A|--
E|--

Stave 3:

E|----------------------------------------------------------------------10--11--13b13v--13--11--11-----------------------------
B|----------9b--6h9p6h9p6/4v--v--6h9--14--13--11h13p11--10--10--11--13------------------------------14--13--11--16--14--13-----
G|--8/6/10---------------------------------------------------------------------------------------------------------------------
D|-----------------------------------------------------------------------------------------------------------------------------
A|-----------------------------------------------------------------------------------------------------------------------------
E|-----------------------------------------------------------------------------------------------------------------------------

Stave 4:

E|----------------------------
B|----------------16--14------
G|------------13----------15--
D|--13b11/15------------------
A|----------------------------
E|----------------------------

http://www.guitartabcreator.com
Guitar Tab Creator is intended to store guitar tab created through the tool. It currently does not support in-line text editing. Any text you place in here will be lost. If you need to comment on your tab, please use the "Tab Notes" section located below.