Sound will begin in 5 seconds

lead guitar

01234567891011121314151617181920212223
E
B
G
D
A
E
B
0 1 2 3 4 5 6 7 8 9 10 11 12 13 14 15 16 17 18 19 20 21 22 23
Song Science #1: How Pros Use 6 Chords to Write Hit Songs
(/) Slide Up  (\) Slide Down  (h) Hammer On  (p) Pull Off  (b) Bend (r) Release (v) Vibrato

Stave 1:

E|-------------------------18------18----18----------------
B|--13--14--15v----------------------------------20r18b20--
G|---------------------15----------------------------------
D|---------------------------------------------------------
A|---------------------------------------------------------
E|---------------------------------------------------------

Stave 2:

E|-------------------------------------------------------------------------15------16--18--
B|--20r18----b20r18----16--15------16--18------------------15--16------18------------------
G|---------------------------------------------15--17--------------------------------------
D|-----------------------------------------------------------------------------------------
A|-----------------------------------------------------------------------------------------
E|-----------------------------------------------------------------------------------------

Stave 3:

E|--18b20----b20----b20--
B|-----------------------
G|-----------------------
D|-----------------------
A|-----------------------
E|-----------------------

Stave 4:

E|---------------------------------------15--15------15r14b15--
B|------12------15--13h15p13--12h13----------------------------
G|--12---------------------------------------------------------
D|-------------------------------------------------------------
A|-------------------------------------------------------------
E|-------------------------------------------------------------

Stave 5:

E|---------------------------------------------18r16--
B|------------------20r18--------------15--16---------
G|--10--12--13--17-------------15--17-----------------
D|----------------------------------------------------
A|----------------------------------------------------
E|----------------------------------------------------

Stave 6:

E|-------------------------------------------------------------18--
B|--20r18--16--18b21----21r20r18--16--18---------------------------
G|--------------------------------------------19r17b19r17--15------
D|-----------------------------------------------------------------
A|-----------------------------------------------------------------
E|-----------------------------------------------------------------

http://www.guitartabcreator.com
Guitar Tab Creator is intended to store guitar tab created through the tool. It currently does not support in-line text editing. Any text you place in here will be lost. If you need to comment on your tab, please use the "Tab Notes" section located below.