Sound will begin in 5 seconds

guitar 7

01234567891011121314151617181920212223
E
B
G
D
A
E
B
0 1 2 3 4 5 6 7 8 9 10 11 12 13 14 15 16 17 18 19 20 21 22 23
Song Science #1: How Pros Use 6 Chords to Write Hit Songs
(/) Slide Up  (\) Slide Down  (h) Hammer On  (p) Pull Off  (b) Bend (r) Release (v) Vibrato

Stave 1:

E|--3-------------------------------------------------
B|--------------------------------------8--7--8--6b8--
G|-----6b7----7--6--7--6--7----8--7--8----------------
D|----------------------------------------------------
A|----------------------------------------------------
E|----------------------------------------------------

Stave 2:

E|------------------------------------------------------------------------
B|-------8--7--6----------------------------------------------------------
G|--8r7-----------8------8--7--8--5------7--6--7--------------3--4--8--8--
D|------------------------------------------------3--3/6/3----------------
A|------------------------------------------------------------------------
E|------------------------------------------------------------------------

Stave 3:

E|--1--4--8--11--15--
B|-------------------
G|-------------------
D|-------------------
A|-------------------
E|-------------------

http://www.guitartabcreator.com
Guitar Tab Creator is intended to store guitar tab created through the tool. It currently does not support in-line text editing. Any text you place in here will be lost. If you need to comment on your tab, please use the "Tab Notes" section located below.