Sound will begin in 5 seconds

Calum Graham - Waiting (http://www.youtube.com/watch?v=MM7VYhPGA2c)

01234567891011121314151617181920212223
E
B
G
D
A
E
B
0 1 2 3 4 5 6 7 8 9 10 11 12 13 14 15 16 17 18 19 20 21 22 23
Song Science #1: How Pros Use 6 Chords to Write Hit Songs
(/) Slide Up  (\) Slide Down  (h) Hammer On  (p) Pull Off  (b) Bend (r) Release (v) Vibrato

Stave 1:

E|--------------------------------------------------------------------------
B|---------------------------------------------------------------0--0/2-----
G|----------12----3--3\2---------------------0----------12--3/7-------------
D|----------12----------------------------0-------------12------------------
A|------12-------------------------0/2/4------------12----------------------
E|--12--------------------2----h2---------------12-----------------------2--

Stave 2:

E|--0----0--0----------------------------------------19-----
B|--2/5--4--2/4\2\0----------------------------------19-----
G|-------------------0------------12----2/3--3\2------------
D|--------------------------------12------------------------
A|----------------------------12----------------------------
E|------------------------12----------------------2---------

Stave 3:

E|-----------------------------------------------0--
B|-----------------------------------------------0--
G|----------------0----------2--3--3/7--------7--7--
D|-------------0-------------0-------------0-----0--
A|--0h--0/2/4------------------------------------0--
E|-------------------4h4--4--4----------7--------7--

Stave 4:

E|-----------------------------------------------------------------------------------------------
B|----------7-------------7--7/9-----0-----------0----------4--2-----------2-----2/4-------------
G|-------8-------------8----------------------0----------3--------------3------------------------
D|--7/9-------------9--------8-10----------2-------------------------0---------------------------
A|-----------------------------------------------------------------------------------------------
E|-------------0------------------------0-----------0-------------4-----------4-------0h7--------

Stave 5:

E|------------
B|------------
G|------------
D|---------0--
A|--0h4/5-----
E|------------

Stave 6:

E|---------------------------------------------------------------------0-----0-----0-----------0--
B|--------7-------------7--7-9---0-----------0----------4--2--------2-----------------------0-----
G|-----8-------------8--------------------0----------3-----------3-----------3-----2-----2--------
D|--9-------------9--------8/10--------2----------------------------------------------------------
A|------------------------------------------------------------------------------------------------
E|-----------0----------------------0-----------0-------------2-----------2-----2-----2-----------

Stave 7:

E|-----------------------------------12--12/14--14\12-----10\9----------
B|-------------------------------12-----------------------------12------
G|--------2-----0------------12-----------------------------------------
D|------------------------------------------------------------------12--
A|------------------------9---------------------------------------------
E|-----2-----2-----2-----------------------------------0----------------

Stave 8:

E|--9-----------9--9\7\5/7-------------7--7\5\4/5-----------5-----------5-----------5-----
B|-----------0----------------------0--------------------0-----------0-----------0--------
G|--------0----------------------0--------------------0-----------0-----------0-----------
D|----------------------------------------------------------------------------------------
A|-------------------------------------------------6-----------------------5-----------5--
E|-----7----------------------6--------------------------------0--------------------------

Stave 9:

E|-------0------------------------------0-----------------
B|--4/5-------------------0----------------0--------------
G|-------------------5------------------------5-----------
D|----------------5----------------5-------------4--------
A|-------------7----------------7-------------------7-----
E|----------6----------------6-------------------------6--

Stave 10:

E|------------------------0--------------------------------0--7--------7-----4--5--5\4\2\0-----
B|--0------------------------5--4-----4--0--------------------7--7-----------------------------
G|--------2------------------------5---------------7--7/8-----5-----5--------------------------
D|-----------2\0--2--------------------------------0-------------------------------------------
A|-------------------2/5---------------------------0-------------------------------------------
E|-----4----------------------------------------7-------------6-----------6-----4--------------

Stave 11:

E|-----2/0------------------------0---------------0--------------------------------
B|------------5-----5\4\2\0--2/4-----------------------------------------0---------
G|----------------------------------------7--7/8-----8-----------------------------
D|----------------------------------------0----------------9-----------------------
A|----------------------------------------0-------------------10/14----------------
E|---------------0---------------------7----------------9------------12-----12--0--

Stave 12:

E|-----------0-----------0-----2\0--------------------------0---------------------------------------
B|--------0-----------0-------------4-----4-2\0-2--------2-----------2--3\2-----0-----------0-------
G|-----0-----------0----------------3-----3\2-0/2-----2-----------2-------------------2-------------
D|---------------------------------------------------------------------------------------------0/2--
A|--------------------------------------------------------------------------------------------------
E|--0-----------0-----------0----------0-----------2-----------2-------------2-----2-----2----------

Stave 13:

E|-----------0-----------0-----2-4--4--5--4-----------5/4-----2--0-------
B|--------0-----------0----------------------------0---------------------
G|-----0-----------0-----------3/5--5--7--5-----5-------------3--2-------
D|-----------------------------------------------------------------------
A|-----------------------------------------------------------------------
E|--0-----------0-----------0----------------2-------------2--------2----

Stave 14:

E|-----------------------0--7--------7----------------0--5------------------------------
B|--------------------------7--7-------------4-----5-----5--5-------------0----------0--
G|---------------7--7/8-----5-----5----------0-----------3-----3-------0----------0-----
D|---------------0---------------------------0--------------------0/2--------2/4--------
A|----------0---------------------------------------------------------------------------
E|--2--2/4------------------6-------------4-----4--------0------------------------------

Stave 15:

E|-------3\2\0--------------------------------------------------------------------------12-------
B|-------------------------5----------------------7-------------------------------12-------------
G|----------------------5-------5--------------7-------7--------------------12-------------------
D|--4/5--------------5-------------5--------7-------------7-------------12--------------------7--
A|------------------------------------------------------------------12------------------------7--
E|--------------7/9-------------------9/11-------------------11/12-------------------------------

Stave 16:

E|------------------------------------------------------------------------------------
B|-------------------7-----------7--7-9------------0--------4--2-----------2-----2/4--
G|----------------8-----------8-----------------0--------3--------------3-------------
D|-----------7/9-----------9--------8/10-----2-----------------------0----------------
A|------------------------------------------------------------------------------------
E|--2-------------------0-----------------0-----------0-----------4-----------4-------

Stave 17:

E|-------------------------------------------------------------------------------0--------
B|----------------------7-----------7--7/9---11-----12\11------------------------------0--
G|-------------------8-----------8-------------------------12--------5--------5-----------
D|----------------9-----------9--------8-10--------------------12----------4--------------
A|-------0/4/5----------------------------------------------------------7-----------7-----
E|--0/7--------------------0---------------------0----------------------------------------

Stave 18:

E|--------------------------------------------------12--12/14--12-----10\9----------
B|--------------------------------0-------------12--------------------------12------
G|-----5------------------------------------12--------------------------------------
D|----------------------0--7/9\7------------------------------------------------12--
A|--7------------0/5/7-------------------9------------------------------------------
E|----------0h0----------------------------------------------------0----------------

Stave 19:

E|--9-----------9----12--7-----------7--9\4/5-----------5-----------5-----------5----------0--
B|-----------0--------------------0------------------0-----------0-----------0--------4/5-----
G|--------0--------------------0------------------0-----------0-----------0-------------------
D|--------------------------------------------------------------------------------------------
A|---------------------------------------------6-----------------------5-----------5----------
E|-----7--------------------6------------------------------0----------------------------------

Stave 20:

E|--------------------0--
B|--------------0-----0--
G|-----------5--------5--
D|--------5--------5--4--
A|-----7-----------7--7--
E|--6--------------6--6--

Stave 21:

E|-------------------------0----------------------------0----7--------7-----4--5-----5\4\2\0--2--
B|--0-------------------------5--4-----4--0------------------7--7--------------------------------
G|--------2-------------------------5-----------7--7/8-------5-----5-----------------------------
D|-----------2--0--2----------------------------0------------------------------------------------
A|--------------------2/5-----------------------0------------------------------------------------
E|-----4--------------0----------------------7---------------6-----------6--------4--------------

Stave 22:

E|----------------------0---------------0----------------0---------------------------
B|--5-----5\4\2\0--2/4----------------------------------------0----------------------
G|------------------------------7--7/8-----5-----5--5/7-------------3--3/5--3--2-----
D|------------------------------0----------------0------------------0----------0--0--
A|------------------------------0----------------------------------------------0-----
E|-----0---------------------7----------------6------------------4-------------2-----

Stave 23:

E|-------------0----------------------------------------0----------------------------------
B|-------------0----------------------------------------0----------------------------------
G|-------------0----------------------------------------0----------------------------------
D|-------------0--10\0--10\0--10\0--10\0--10/12---------0---12\0--12\0--12\0--12\0--12/14--
A|--1/9-----9--9------------------------------------11--11---------------------------------
E|-------0-----0---------------------------------0------0----------------------------------

Stave 24:

E|---------0----------------------------------------------0--
B|---------0------------------------------------------14-----
G|---------0--------------------------------------15---------
D|---------0---14\0--14\0--14\0--14\0---------16-------------
A|-----12--12--------------------------12/14-----------------
E|--0------0-------------------------------------------------

Stave 25:

E|--0---------0-----0-------0-----14--16--17--16--14--16/0--12--0-------0-----------12--10--9--
B|--0---------0-----0-------0-------------------------------12--0-------0----------------------
G|--10--------8-----10------0-------------------------------12--10------14----12---------------
D|--12--------10----12------12----------------------------------12------0-----12---------------
A|--0---------0-----0-------14----------------------------------0-------0-----12---------------
E|--11--------9-----11------0-----------------------------------11------14----0----------------

Stave 26:

E|--7--5--4--2--0------0-----0-----0--------0--0--0----------------------0-----------------------
B|---------------------0-----0-----0--------0--0--0------------------------------0---------------
G|---------------------10----8-----7--------5--3--5--------------------------------------0-------
D|---------------------12----10----0--------0--0--7--7\0--7\0--7\0--7\0-----7\0-----7\0-----7\0--
A|---------------------0-----0-----0--------0--0-------------------------------------------------
E|---------------------11----9-----7--------6--4--6----------------------------------------------

Stave 27:

E|--0-------------------------------------0--
B|-----0----------------------------------0--
G|--------5-------------------------------5--
D|-----------0--------7\0--7\0--7\0--7\0--0--
A|--------------0-------------------------0--
E|-----------------6----------------------6--

Stave 28:

E|--9\5/7------------------5/4/2-----2/4\2\0-----------------------12-----
B|-------------12----------------------------------------------12---------
G|---------12----------12----------------------------2--14--3----------2--
D|-----------------12----------------------------12-----------------------
A|------------------------------------------------------------------------
E|--0-----------------------------0-----------2---------------------------

Stave 29:

E|--
B|--
G|--
D|--
A|--
E|--

Stave 30:

E|--
B|--
G|--
D|--
A|--
E|--

Stave 31:

E|--
B|--
G|--
D|--
A|--
E|--

Stave 32:

E|--
B|--
G|--
D|--
A|--
E|--

Stave 33:

E|--
B|--
G|--
D|--
A|--
E|--

Stave 34:

E|--
B|--
G|--
D|--
A|--
E|--

Stave 35:

E|--
B|--
G|--
D|--
A|--
E|--

Stave 36:

E|--
B|--
G|--
D|--
A|--
E|--

Stave 37:

E|--
B|--
G|--
D|--
A|--
E|--

Stave 38:

E|--
B|--
G|--
D|--
A|--
E|--

Stave 39:

E|--
B|--
G|--
D|--
A|--
E|--

Stave 40:

E|------------------------0-------------------
B|--0------------------------5--4-------0--0--
G|--------2------------------------7\5--------
D|-----------2\0--2---------------------------
A|-------------------2/5----------------------
E|-----4-------------0------------------------

Stave 41:

E|-------------5--------8-----7-----5--8\5\3--------------0-----------------------0-----------
B|----------3--------3------------------------5-----------------------5-----------------------
G|-------3--------3------------------------------------6-----------6-----------6-----------6--
D|-------------------------------3------------------3-----------3-----------3-----------3-----
A|-------------------------3---------------------3-----------3-----------3-----------3--------
E|--2/3---------------------------------------------------------------------------------------

Stave 42:

E|--------------0-----------3-----------3--5\3/5-----------5-----------------------5--------5--
B|--5--------5-----------5-----------5------------------5--------------4--------4-----4-----3--
G|--------5-----------5-----------5------------------5-----------5-----------5-----------5--3--
D|------------------------------------------------------------------------------------------3--
A|------------------------------------------------0-----------0-----0-----0-----------------3--
E|-----5-----------5-----------5------------------------------------------------------------3--

Stave 43:

E|--5-----------5-----------8-----7-----5-----8\5\3--------------0-----------------------0--
B|-----------3-----------3---------------------------5-----------------------5--------------
G|--------3-----------3--------------------3------------------6-----------6-----------6-----
D|-----------------------------------3---------------------3-----------3-----------3--------
A|-----------------------------3------------------------3-----------3-----------3-----------
E|-----3-----------3------------------------------------------------------------------------

Stave 44:

E|-----------------------3\0-----------------0----------------------------
B|-----------5--------5-------5-----------5--------5----------------------
G|--------6--------5-------------5-----5-----------------5-------------5--
D|-----3----------------------------------------------------------4/5--4--
A|--3----------------------------------------------------------7-------7--
E|--------------5-------------------5-----------5-----5-----6----------6--

http://www.guitartabcreator.com
Guitar Tab Creator is intended to store guitar tab created through the tool. It currently does not support in-line text editing. Any text you place in here will be lost. If you need to comment on your tab, please use the "Tab Notes" section located below.