Sound will begin in 5 seconds

samba pa ti

01234567891011121314151617181920212223
E
B
G
D
A
E
B
0 1 2 3 4 5 6 7 8 9 10 11 12 13 14 15 16 17 18 19 20 21 22 23
Song Science #1: How Pros Use 6 Chords to Write Hit Songs
(/) Slide Up  (\) Slide Down  (h) Hammer On  (p) Pull Off  (b) Bend (r) Release (v) Vibrato

Stave 1:

E|-------------------------|----------1h2--2h3p2--------|--
B|--------------5--8-------|-----0h3--------------3-----|--
G|-----4--5--7--------5/7--|--0-------------------------|--
D|--7----------------------|-------------------------2--|--
A|-------------------------|-------------------------2--|--
E|-------------------------|-------------------------0--|--

Stave 2:

E|--5h7--5h7p5--------5-----7---------|--5h7--5h7p5-------------------------------------------
B|--------------8--5--8p10--10p12--5--|--------------8--5--8b10--5--7p3-----------------5-----
G|------------------------------------|----------------------------------7--5--4--5--7--------
D|------------------------------------|----------------------------------------------------7--
A|------------------------------------|-------------------------------------------------------
E|------------------------------------|-------------------------------------------------------

Stave 3:

E|---------------------|--5h7--5h7p5-----------5-----
B|-------3--4/5--7-----|--------------8--8--5--8b10--
G|----4-------------7--|-----------------------------
D|---------------------|-----------------------------
A|---------------------|-----------------------------
E|---------------------|-----------------------------

Stave 4:

E|-------------------------|--------1/2--2h3p2-------0--|-------------------------|--------1/2--2h3p2-----
B|--------------5--8-------|-----3--------------3p0--0--|--------------5--8-------|-----3--------------3--
G|-----4--5--7--------5/7--|--4-------------------------|-----4--5--7--------5/7--|--4--------------------
D|--7----------------------|----------------------------|--7----------------------|-----------------------
A|-------------------------|----------------------------|-------------------------|-----------------------
E|-------------------------|----------------------------|-------------------------|-----------------------

Stave 5:

E|--12--------------------------|--5h7--5h7p5--------5--7--
B|--12--15b17p12----------------|--------------8--5--7--7--
G|--12------------14b16p12------|--------------------7--7--
D|--12----------------------14--|--------------------------
A|--_--------------------------|--------------------------
E|--_--------------------------|--------------------------

http://www.guitartabcreator.com
Guitar Tab Creator is intended to store guitar tab created through the tool. It currently does not support in-line text editing. Any text you place in here will be lost. If you need to comment on your tab, please use the "Tab Notes" section located below.