Sound will begin in 5 seconds

blackmagicwomen

01234567891011121314151617181920212223
E
B
G
D
A
E
B
0 1 2 3 4 5 6 7 8 9 10 11 12 13 14 15 16 17 18 19 20 21 22 23
Song Science #1: How Pros Use 6 Chords to Write Hit Songs
(/) Slide Up  (\) Slide Down  (h) Hammer On  (p) Pull Off  (b) Bend (r) Release (v) Vibrato

Stave 1:

E|------------|-------------|-5-------3-------|-5-------3-------|-10-
B|--8\6-------|-8\6-8-------|---8-6-5---6-5-3-|---8-6-5---6-5-3-|-10-
G|------7/9\7-|-------7/9\7-|-----------------|-----------------|-10-
D|------------|-------------|-----------------|-----------------|-12-
A|------------|-------------|-----------------|-----------------|-12-
E|------------|-------------|-----------------|-----------------|-10-

Stave 2:

E|-10-------------------|-------10---------------------|-------12-13-12-13p12p10-------|-
B|----13-13b15-10-13-10-|-13b15----13-10---------------|-10-13-------------------13-10-|-
G|----------------------|----------------12-14p12/10/9-|-------------------------------|-
D|----------------------|------------------------------|-------------------------------|-
A|----------------------|------------------------------|-------------------------------|-
E|----------------------|------------------------------|-------------------------------|-

Stave 3:

E|--------10-------------------|-------10-13-13b15-15b17-13----13-18b20-|-
B|--13b15----13-10-12b14-10----|----11----------------------15----------|-
G|--------------------------12-|-12-------------------------------------|-
D|-----------------------------|----------------------------------------|-
A|-----------------------------|----------------------------------------|-
E|-----------------------------|----------------------------------------|-

Stave 4:

E|--10-------------------------------------------------------10-
B|-----------------10----------------------------------------10-
G|-----12b14-10-12----12--10h12p10---------------------------10-
D|---------------------------------12-10-12-10------------------
A|---------------------------------------------12-11-10\8-10----
E|--------------------------------------------------------------

Stave 5:

E|--
B|--
G|--
D|--
A|--
E|--

http://www.guitartabcreator.com
Guitar Tab Creator is intended to store guitar tab created through the tool. It currently does not support in-line text editing. Any text you place in here will be lost. If you need to comment on your tab, please use the "Tab Notes" section located below.