Sound will begin in 5 seconds

Opus 6 Studio 7 Fernando Sor

01234567891011121314151617181920212223
E
B
G
D
A
E
B
0 1 2 3 4 5 6 7 8 9 10 11 12 13 14 15 16 17 18 19 20 21 22 23
Song Science #1: How Pros Use 6 Chords to Write Hit Songs
(/) Slide Up  (\) Slide Down  (h) Hammer On  (p) Pull Off  (b) Bend (r) Release (v) Vibrato

Stave 1:

E|-2/3\2---0---2---3---5/7\5---4---5---7---10----9----7---5/7\5---3---2---
B|-------3---2---3---5-------7---6---7---7----12---10-----------7---5---3-
G|------------------------------------------------------9-----------------
D|---------0-------------------0-----------0----------------------0-------
A|------------------------------------------------------------------------
D|-0-------------------0---------------0------------------0---------------

Stave 2:

E|-5---3/5\3-2---0---3---2h3p2---3---5---9---5h7p5---5h7p5---3h5p3---2---0---
B|---7---------3---2---5-------3---5---7---7-------8-------7-------5---3---1-
G|-------------------------------------------0-----------------------1---2---
D|-------------------------------0-------------------------------------------
A|-----0---------------------------------------------------------------------
D|-----------------------0---------------------------------------------------

Stave 3:

E|-5---4---3---2h3p2---0---2---3---5h7p5---4---5---6---7---10----9----7---
B|---2---0---2-------3---2---3---5-------7---6---7---7---8----12---10---8-
G|------------------------------------------------------------------------
D|---------------------0-------------------0---------------0--------------
A|------------------------------------------------------------------------
D|-------------0-------------------0-------------------0------------------

Stave 4:

E|-5---3---2---5---3h5p3---2---0---3---2h3p2---3---5---10-7---3h5p3---
B|---7---5---3---7-------5---3---2---5-------3---5---7------8-------5-
G|--------------------------------------------------------0---0-------
D|-----0---------------------------------------0----------------------
A|-----------------0--------------------------------------------------
D|-0-----------------------------------0------------------------------

Stave 5:

E|-2---0---2------------2h3p2---5---4---7---5---9---7---5---4h5p4---2---
B|---3---2---3----------------3---3---3---------------------------5---3-
G|-2-----------2--------------------------7---6---9---7---6-------------
D|---------------4-0----0-----------2-----------------------0-----------
A|-----0------------------------------------0---------------------------
D|---------0------------------------------------------------------------

Stave 6:

E|-0-----------0-------0-0h2p0---7---0h2p0-7-----------5-----------5-----------7-----
B|---2-3---2-------0-----------3---------------5h7p5-------5h7p5-------5h7p5-------5-
G|-------4---2---2---1---1---------7---------7-------6---6-------6---6-------7---7---
D|-----0---2-----------------------------------7-----------------------6-------------
A|-----------------------------------------------------------------------------------
D|-----------------------------------------------------------------------------------

Stave 7:

E|---------5-----------5---0---9---7---5---4h5p4-------5-------
B|-5h7p5-------5h7p5---------2-------------------5-7-----7-7---
G|-------6---6-------6---6-------9---7---6-----------7-------7-
D|-7---------------------------------------0-------------------
A|-------------------------0-----------------------------------
D|-------------------------------------------------------------

http://www.guitartabcreator.com
Guitar Tab Creator is intended to store guitar tab created through the tool. It currently does not support in-line text editing. Any text you place in here will be lost. If you need to comment on your tab, please use the "Tab Notes" section located below.