Sound will begin in 5 seconds

Solo SFTD

01234567891011121314151617181920212223
E
B
G
D
A
E
B
0 1 2 3 4 5 6 7 8 9 10 11 12 13 14 15 16 17 18 19 20 21 22 23
Song Science #1: How Pros Use 6 Chords to Write Hit Songs
(/) Slide Up  (\) Slide Down  (h) Hammer On  (p) Pull Off  (b) Bend (r) Release (v) Vibrato

Stave 1:

E|--12----------------------------12-------------------------------------------
B|------15----------------------------12---------------------------------------
G|----------12--14b17r14p12---------------12--14b17r14p12-----------12--14--14b
D|---------------------------14v---------------------------14v--14-------------
A|-----------------------------------------------------------------------------
E|-----------------------------------------------------------------------------

Stave 2:

E|---------------------17b19------15b16-------17p15------17--17--16--15----------15------
B|--------------15b17--------------------17v---------17------------------17--15------17--
G|------12--14----------------17---------------------------------------------------------
D|--14-----------------------------------------------------------------------------------
A|---------------------------------------------------------------------------------------
E|---------------------------------------------------------------------------------------

Stave 3:

E|------15--17--17b19--17--15--17--15-----------17b19--17--17b19--17--15--17--15b16------
B|--17---------------------------------17v--17---------------------------------------17--
G|---------------------------------------------------------------------------------------
D|---------------------------------------------------------------------------------------
A|---------------------------------------------------------------------------------------
E|---------------------------------------------------------------------------------------

Stave 4:

E|------------------------------15--17--17b19--17--15--17--15b16--------------15--17--15--
B|--17----17----17--17--17--17------------------------------------15--17--15--------------
G|----------------------------------------------------------------------------------------
D|----------------------------------------------------------------------------------------
A|----------------------------------------------------------------------------------------
E|----------------------------------------------------------------------------------------

Stave 5:

E|--15--17---------
B|----------17--17\
G|-----------------
D|-----------------
A|-----------------
E|-----------------

http://www.guitartabcreator.com
Guitar Tab Creator is intended to store guitar tab created through the tool. It currently does not support in-line text editing. Any text you place in here will be lost. If you need to comment on your tab, please use the "Tab Notes" section located below.