Komiaku

Chords
01234567891011121314151617181920212223
E
B
G
D
A
E
B
0 1 2 3 4 5 6 7 8 9 10 11 12 13 14 15 16 17 18 19 20 21 22 23
(/) Slide Up  (\) Slide Down  (h) Hammer On  (p) Pull Off  (b) Bend (r) Release (v) Vibrato


E|--------------------------
B|--------------------------
G|--8--7--8--8--9--8--9--9--
D|--------------------------  Main verse - varies a little during singing but you'll hear it
A|--6--6--6--6--7--7--7--7--
E|--------------------------



E|--------------------------12----------------------12-------------------------
B|------10------10------10------10------10------10----------10------10---------
G|--12------12------12--------------12------12----------12------12------12-----
D|-----------------------------------------------------------------------------
A|-----------------------------------------------------------------------------
E|-----------------------------------------------------------------------------



E|----------------------------------
B|------8---10--8-------8-----------
G|--9---9---9---9---9---9---8---9---
D|--10--10--10--10--10--10--10--10--
A|--------------------------0---0---
E|----------------------------------
							
[[],[],[],[],[],[]]

Member for

8 years 7 months
Submitted by gt2220 on Sun, 2011-10-02 19:36