Sound will begin in 5 seconds

f haromic tapping section

01234567891011121314151617181920212223
E
B
G
D
A
E
B
0 1 2 3 4 5 6 7 8 9 10 11 12 13 14 15 16 17 18 19 20 21 22 23
Song Science #1: How Pros Use 6 Chords to Write Hit Songs
(/) Slide Up  (\) Slide Down  (h) Hammer On  (p) Pull Off  (b) Bend (r) Release (v) Vibrato

Stave 1:

E|----------------------------------------------------
B|----------------------------------------------------
G|----------------------------------------------------
D|--------------15p10h11h14--15p14p11p10--------------
A|--15p8h10h11----------------------------15p11p10p8--
E|----------------------------------------------------

Stave 2:

E|------------------------------------------------
B|------------------------------------------------
G|-------------17p9h10h12--17p12p10p9-------------
D|--15p6h8h10--------------------------15p10p8p6--
A|------------------------------------------------
E|------------------------------------------------

Stave 3:

E|------------------------------------------------------
B|------------------------------------------------------
G|---------------17p12h13h15--17p15p13p12---------------
D|--15p10h11h14----------------------------15p14p11p10--
A|------------------------------------------------------
E|------------------------------------------------------

Stave 4:

E|----------------------------------------------------
B|--------------18p11h13h14--18p14p13p11--------------
G|--17p9h10h12----------------------------17p12p10p9--
D|----------------------------------------------------
A|----------------------------------------------------
E|----------------------------------------------------

http://www.guitartabcreator.com
Guitar Tab Creator is intended to store guitar tab created through the tool. It currently does not support in-line text editing. Any text you place in here will be lost. If you need to comment on your tab, please use the "Tab Notes" section located below.